  0
SECTION
  2
HEADER
  9
$ACADVER
  1
AC1024
  9
$ACADMAINTVER
 70
     6
  9
$DWGCODEPAGE
  3
ANSI_1252
  9
$INSBASE
 10
0.0
 20
0.0
 30
0.0
  9
$EXTMIN
 10
1.000000000000000E+20
 20
1.000000000000000E+20
 30
1.000000000000000E+20
  9
$EXTMAX
 10
-1.000000000000000E+20
 20
-1.000000000000000E+20
 30
-1.000000000000000E+20
  9
$LIMMIN
 10
0.0
 20
0.0
  9
$LIMMAX
 10
12.0
 20
9.0
  9
$ORTHOMODE
 70
     0
  9
$REGENMODE
 70
     1
  9
$FILLMODE
 70
     1
  9
$QTEXTMODE
 70
     0
  9
$MIRRTEXT
 70
     1
  9
$LTSCALE
 40
1.0
  9
$ATTMODE
 70
     1
  9
$TEXTSIZE
 40
0.2
  9
$TRACEWID
 40
0.05
  9
$TEXTSTYLE
  7
Standard
  9
$CLAYER
  8
0
  9
$CELTYPE
  6
ByLayer
  9
$CECOLOR
 62
   256
  9
$CELTSCALE
 40
1.0
  9
$DISPSILH
 70
     0
  9
$DIMSCALE
 40
1.0
  9
$DIMASZ
 40
0.18
  9
$DIMEXO
 40
0.0625
  9
$DIMDLI
 40
0.38
  9
$DIMRND
 40
0.0
  9
$DIMDLE
 40
0.0
  9
$DIMEXE
 40
0.18
  9
$DIMTP
 40
0.0
  9
$DIMTM
 40
0.0
  9
$DIMTXT
 40
0.18
  9
$DIMCEN
 40
0.09
  9
$DIMTSZ
 40
0.0
  9
$DIMTOL
 70
     0
  9
$DIMLIM
 70
     0
  9
$DIMTIH
 70
     1
  9
$DIMTOH
 70
     1
  9
$DIMSE1
 70
     0
  9
$DIMSE2
 70
     0
  9
$DIMTAD
 70
     0
  9
$DIMZIN
 70
     0
  9
$DIMBLK
  1

  9
$DIMASO
 70
     1
  9
$DIMSHO
 70
     1
  9
$DIMPOST
  1

  9
$DIMAPOST
  1

  9
$DIMALT
 70
     0
  9
$DIMALTD
 70
     2
  9
$DIMALTF
 40
25.4
  9
$DIMLFAC
 40
1.0
  9
$DIMTOFL
 70
     0
  9
$DIMTVP
 40
0.0
  9
$DIMTIX
 70
     0
  9
$DIMSOXD
 70
     0
  9
$DIMSAH
 70
     0
  9
$DIMBLK1
  1

  9
$DIMBLK2
  1

  9
$DIMSTYLE
  2
Standard
  9
$DIMCLRD
 70
     0
  9
$DIMCLRE
 70
     0
  9
$DIMCLRT
 70
     0
  9
$DIMTFAC
 40
1.0
  9
$DIMGAP
 40
0.09
  9
$DIMJUST
 70
     0
  9
$DIMSD1
 70
     0
  9
$DIMSD2
 70
     0
  9
$DIMTOLJ
 70
     1
  9
$DIMTZIN
 70
     0
  9
$DIMALTZ
 70
     0
  9
$DIMALTTZ
 70
     0
  9
$DIMUPT
 70
     0
  9
$DIMDEC
 70
     4
  9
$DIMTDEC
 70
     4
  9
$DIMALTU
 70
     2
  9
$DIMALTTD
 70
     2
  9
$DIMTXSTY
  7
Standard
  9
$DIMAUNIT
 70
     0
  9
$DIMADEC
 70
     0
  9
$DIMALTRND
 40
0.0
  9
$DIMAZIN
 70
     0
  9
$DIMDSEP
 70
    46
  9
$DIMATFIT
 70
     3
  9
$DIMFRAC
 70
     0
  9
$DIMLDRBLK
  1

  9
$DIMLUNIT
 70
     2
  9
$DIMLWD
 70
    -2
  9
$DIMLWE
 70
    -2
  9
$DIMTMOVE
 70
     0
  9
$DIMFXL
 40
1.0
  9
$DIMFXLON
 70
     0
  9
$DIMJOGANG
 40
0.7853981633974483
  9
$DIMTFILL
 70
     0
  9
$DIMTFILLCLR
 70
     0
  9
$DIMARCSYM
 70
     0
  9
$DIMLTYPE
  6

  9
$DIMLTEX1
  6

  9
$DIMLTEX2
  6

  9
$DIMTXTDIRECTION
 70
     0
  9
$LUNITS
 70
     2
  9
$LUPREC
 70
     4
  9
$SKETCHINC
 40
0.1
  9
$FILLETRAD
 40
0.5
  9
$AUNITS
 70
     0
  9
$AUPREC
 70
     0
  9
$MENU
  1
.
  9
$ELEVATION
 40
0.0
  9
$PELEVATION
 40
0.0
  9
$THICKNESS
 40
0.0
  9
$LIMCHECK
 70
     0
  9
$CHAMFERA
 40
0.5
  9
$CHAMFERB
 40
0.5
  9
$CHAMFERC
 40
1.0
  9
$CHAMFERD
 40
0.0
  9
$SKPOLY
 70
     0
  9
$TDCREATE
 40
2458828.425491377
  9
$TDUCREATE
 40
2458828.383824711
  9
$TDUPDATE
 40
2458828.425492396
  9
$TDUUPDATE
 40
2458828.383825729
  9
$TDINDWG
 40
0.0000000116
  9
$TDUSRTIMER
 40
0.0000000116
  9
$USRTIMER
 70
     1
  9
$ANGBASE
 50
0.0
  9
$ANGDIR
 70
     0
  9
$PDMODE
 70
     0
  9
$PDSIZE
 40
0.0
  9
$PLINEWID
 40
0.0
  9
$SPLFRAME
 70
     0
  9
$SPLINETYPE
 70
     6
  9
$SPLINESEGS
 70
     8
  9
$HANDSEED
  5
2EF
  9
$SURFTAB1
 70
     6
  9
$SURFTAB2
 70
     6
  9
$SURFTYPE
 70
     6
  9
$SURFU
 70
     6
  9
$SURFV
 70
     6
  9
$UCSBASE
  2

  9
$UCSNAME
  2

  9
$UCSORG
 10
0.0
 20
0.0
 30
0.0
  9
$UCSXDIR
 10
1.0
 20
0.0
 30
0.0
  9
$UCSYDIR
 10
0.0
 20
1.0
 30
0.0
  9
$UCSORTHOREF
  2

  9
$UCSORTHOVIEW
 70
     0
  9
$UCSORGTOP
 10
0.0
 20
0.0
 30
0.0
  9
$UCSORGBOTTOM
 10
0.0
 20
0.0
 30
0.0
  9
$UCSORGLEFT
 10
0.0
 20
0.0
 30
0.0
  9
$UCSORGRIGHT
 10
0.0
 20
0.0
 30
0.0
  9
$UCSORGFRONT
 10
0.0
 20
0.0
 30
0.0
  9
$UCSORGBACK
 10
0.0
 20
0.0
 30
0.0
  9
$PUCSBASE
  2

  9
$PUCSNAME
  2

  9
$PUCSORG
 10
0.0
 20
0.0
 30
0.0
  9
$PUCSXDIR
 10
1.0
 20
0.0
 30
0.0
  9
$PUCSYDIR
 10
0.0
 20
1.0
 30
0.0
  9
$PUCSORTHOREF
  2

  9
$PUCSORTHOVIEW
 70
     0
  9
$PUCSORGTOP
 10
0.0
 20
0.0
 30
0.0
  9
$PUCSORGBOTTOM
 10
0.0
 20
0.0
 30
0.0
  9
$PUCSORGLEFT
 10
0.0
 20
0.0
 30
0.0
  9
$PUCSORGRIGHT
 10
0.0
 20
0.0
 30
0.0
  9
$PUCSORGFRONT
 10
0.0
 20
0.0
 30
0.0
  9
$PUCSORGBACK
 10
0.0
 20
0.0
 30
0.0
  9
$USERI1
 70
     0
  9
$USERI2
 70
     0
  9
$USERI3
 70
     0
  9
$USERI4
 70
     0
  9
$USERI5
 70
     0
  9
$USERR1
 40
0.0
  9
$USERR2
 40
0.0
  9
$USERR3
 40
0.0
  9
$USERR4
 40
0.0
  9
$USERR5
 40
0.0
  9
$WORLDVIEW
 70
     1
  9
$SHADEDGE
 70
     3
  9
$SHADEDIF
 70
    70
  9
$TILEMODE
 70
     1
  9
$MAXACTVP
 70
    64
  9
$PINSBASE
 10
0.0
 20
0.0
 30
0.0
  9
$PLIMCHECK
 70
     0
  9
$PEXTMIN
 10
1.000000000000000E+20
 20
1.000000000000000E+20
 30
1.000000000000000E+20
  9
$PEXTMAX
 10
-1.000000000000000E+20
 20
-1.000000000000000E+20
 30
-1.000000000000000E+20
  9
$PLIMMIN
 10
0.0
 20
0.0
  9
$PLIMMAX
 10
12.0
 20
9.0
  9
$UNITMODE
 70
     0
  9
$VISRETAIN
 70
     1
  9
$PLINEGEN
 70
     0
  9
$PSLTSCALE
 70
     1
  9
$TREEDEPTH
 70
  3020
  9
$CMLSTYLE
  2
Standard
  9
$CMLJUST
 70
     0
  9
$CMLSCALE
 40
1.0
  9
$PROXYGRAPHICS
 70
     1
  9
$MEASUREMENT
 70
     0
  9
$CELWEIGHT
370
    -1
  9
$ENDCAPS
280
     0
  9
$JOINSTYLE
280
     0
  9
$LWDISPLAY
290
     1
  9
$INSUNITS
 70
     4
  9
$HYPERLINKBASE
  1

  9
$STYLESHEET
  1

  9
$XEDIT
290
     1
  9
$CEPSNTYPE
380
     0
  9
$PSTYLEMODE
290
     1
  9
$FINGERPRINTGUID
  2
{3EED643C-5F1A-427E-9BBD-AD02F16955E6}
  9
$VERSIONGUID
  2
{FAEB1C32-E019-11D5-929B-00C0DF256EC4}
  9
$EXTNAMES
290
     1
  9
$PSVPSCALE
 40
0.0
  9
$OLESTARTUP
290
     0
  9
$SORTENTS
280
   127
  9
$INDEXCTL
280
     0
  9
$HIDETEXT
280
     1
  9
$XCLIPFRAME
280
     2
  9
$HALOGAP
280
     0
  9
$OBSCOLOR
 70
   257
  9
$OBSLTYPE
280
     0
  9
$INTERSECTIONDISPLAY
280
     0
  9
$INTERSECTIONCOLOR
 70
   257
  9
$DIMASSOC
280
     2
  9
$PROJECTNAME
  1

  9
$CAMERADISPLAY
290
     0
  9
$LENSLENGTH
 40
50.0
  9
$CAMERAHEIGHT
 40
0.0
  9
$STEPSPERSEC
 40
2.0
  9
$STEPSIZE
 40
6.0
  9
$3DDWFPREC
 40
2.0
  9
$PSOLWIDTH
 40
0.25
  9
$PSOLHEIGHT
 40
4.0
  9
$LOFTANG1
 40
1.570796326794897
  9
$LOFTANG2
 40
1.570796326794897
  9
$LOFTMAG1
 40
0.0
  9
$LOFTMAG2
 40
0.0
  9
$LOFTPARAM
 70
     7
  9
$LOFTNORMALS
280
     1
  9
$LATITUDE
 40
37.795
  9
$LONGITUDE
 40
-122.394
  9
$NORTHDIRECTION
 40
0.0
  9
$TIMEZONE
 70
 -8000
  9
$LIGHTGLYPHDISPLAY
280
     1
  9
$TILEMODELIGHTSYNCH
280
     1
  9
$CMATERIAL
347
3C
  9
$SOLIDHIST
280
     1
  9
$SHOWHIST
280
     1
  9
$DWFFRAME
280
     2
  9
$DGNFRAME
280
     2
  9
$REALWORLDSCALE
290
     1
  9
$INTERFERECOLOR
 62
   256
  9
$CSHADOW
280
     0
  9
$SHADOWPLANELOCATION
 40
0.0
  0
ENDSEC
  0
SECTION
  2
CLASSES
  0
CLASS
  1
ACDBDICTIONARYWDFLT
  2
AcDbDictionaryWithDefault
  3
ObjectDBX Classes
 90
        0
 91
        4
280
     0
281
     0
  0
CLASS
  1
VISUALSTYLE
  2
AcDbVisualStyle
  3
ObjectDBX Classes
 90
     4095
 91
        4
280
     0
281
     0
  0
CLASS
  1
MATERIAL
  2
AcDbMaterial
  3
ObjectDBX Classes
 90
     1153
 91
        4
280
     0
281
     0
  0
CLASS
  1
SUN
  2
AcDbSun
  3
SCENEOE
 90
     1024
 91
        4
280
     0
281
     0
  0
ENDSEC
  0
SECTION
  2
TABLES
  0
TABLE
  2
VPORT
  5
8
330
0
100
AcDbSymbolTable
 70
     1
  0
VPORT
  5
29
330
8
100
AcDbSymbolTableRecord
100
AcDbViewportTableRecord
  2
*Active
 70
     0
 10
0.0
 20
0.0
 11
1.0
 21
1.0
 12
0.0
 22
0.0
 13
0.0
 23
0.0
 14
0.5
 24
0.5
 15
0.5
 25
0.5
 16
0.0
 26
0.0
 36
1.0
 17
143.0811099555216
 27
-186.0245723890909
 37
0.0
 40
384.1246181495854
 41
0.7731631291661836
 42
50.0
 43
0.0
 44
0.0
 50
0.0
 51
0.0
 71
     0
 72
   100
 73
     1
 74
     3
 75
     0
 76
     0
 77
     0
 78
     0
281
     0
 65
     1
110
0.0
120
0.0
130
0.0
111
1.0
121
0.0
131
0.0
112
0.0
122
1.0
132
0.0
 79
     0
146
0.0
 60
     3
 61
     5
292
     1
282
     1
141
0.0
142
0.0
 63
   250
361
3F
  0
ENDTAB
  0
TABLE
  2
LTYPE
  5
5
330
0
100
AcDbSymbolTable
 70
     1
  0
LTYPE
  5
14
330
5
100
AcDbSymbolTableRecord
100
AcDbLinetypeTableRecord
  2
ByBlock
 70
     0
  3

 72
    65
 73
     0
 40
0.0
  0
LTYPE
  5
15
330
5
100
AcDbSymbolTableRecord
100
AcDbLinetypeTableRecord
  2
ByLayer
 70
     0
  3

 72
    65
 73
     0
 40
0.0
  0
LTYPE
  5
16
330
5
100
AcDbSymbolTableRecord
100
AcDbLinetypeTableRecord
  2
Continuous
 70
     0
  3
Solid line
 72
    65
 73
     0
 40
0.0
  0
ENDTAB
  0
TABLE
  2
LAYER
  5
2
330
0
100
AcDbSymbolTable
 70
     5
  0
LAYER
  5
10
330
2
100
AcDbSymbolTableRecord
100
AcDbLayerTableRecord
  2
0
 70
     0
 62
     7
  6
Continuous
370
    -3
390
F
347
3E
  0
LAYER
  5
40
330
2
100
AcDbSymbolTableRecord
100
AcDbLayerTableRecord
  2
Beschriftung
 70
     0
 62
     7
  6
Continuous
370
    -3
390
F
347
3E
  0
LAYER
  5
47
330
2
100
AcDbSymbolTableRecord
100
AcDbLayerTableRecord
  2
Bemassung
 70
     0
 62
     7
  6
Continuous
370
    -3
390
F
347
3E
  0
LAYER
  5
D9
330
2
100
AcDbSymbolTableRecord
100
AcDbLayerTableRecord
  2
Strichzeichnung
 70
     0
 62
     7
  6
Continuous
370
    -3
390
F
347
3E
  0
LAYER
  5
2EB
330
2
100
AcDbSymbolTableRecord
100
AcDbLayerTableRecord
  2
Modell
 70
     4
 62
     7
  6
Continuous
370
    -3
390
F
347
3E
  0
ENDTAB
  0
TABLE
  2
STYLE
  5
3
330
0
100
AcDbSymbolTable
 70
     1
  0
STYLE
  5
11
330
3
100
AcDbSymbolTableRecord
100
AcDbTextStyleTableRecord
  2
Standard
 70
     0
 40
0.0
 41
1.0
 50
0.0
 71
     0
 42
0.2
  3
txt
  4

  0
ENDTAB
  0
TABLE
  2
VIEW
  5
6
330
0
100
AcDbSymbolTable
 70
     0
  0
ENDTAB
  0
TABLE
  2
UCS
  5
7
330
0
100
AcDbSymbolTable
 70
     0
  0
ENDTAB
  0
TABLE
  2
APPID
  5
9
330
0
100
AcDbSymbolTable
 70
     1
  0
APPID
  5
12
330
9
100
AcDbSymbolTableRecord
100
AcDbRegAppTableRecord
  2
ACAD
 70
     0
  0
ENDTAB
  0
TABLE
  2
DIMSTYLE
  5
A
330
0
100
AcDbSymbolTable
 70
     1
100
AcDbDimStyleTable
  0
DIMSTYLE
105
27
330
A
100
AcDbSymbolTableRecord
100
AcDbDimStyleTableRecord
  2
Standard
 70
     0
178
     0
340
11
  0
ENDTAB
  0
TABLE
  2
BLOCK_RECORD
  5
1
330
0
100
AcDbSymbolTable
 70
    16
  0
BLOCK_RECORD
  5
1F
330
1
100
AcDbSymbolTableRecord
100
AcDbBlockTableRecord
  2
*Model_Space
340
22
 70
     0
280
     1
281
     0
  0
BLOCK_RECORD
  5
1B
330
1
100
AcDbSymbolTableRecord
100
AcDbBlockTableRecord
  2
*Paper_Space
340
1E
 70
     0
280
     1
281
     0
  0
BLOCK_RECORD
  5
23
330
1
100
AcDbSymbolTableRecord
100
AcDbBlockTableRecord
  2
*Paper_Space0
340
26
 70
     0
280
     1
281
     0
  0
BLOCK_RECORD
  5
DA
330
1
100
AcDbSymbolTableRecord
100
AcDbBlockTableRecord
  2
block 2
340
0
102
{BLKREFS
331
DB
102
}
 70
     0
280
     1
281
     0
  0
BLOCK_RECORD
  5
F2
330
1
100
AcDbSymbolTableRecord
100
AcDbBlockTableRecord
  2
block 3
340
0
102
{BLKREFS
331
F3
102
}
 70
     0
280
     1
281
     0
  0
BLOCK_RECORD
  5
10A
330
1
100
AcDbSymbolTableRecord
100
AcDbBlockTableRecord
  2
block 4
340
0
102
{BLKREFS
331
10B
102
}
 70
     0
280
     1
281
     0
  0
BLOCK_RECORD
  5
139
330
1
100
AcDbSymbolTableRecord
100
AcDbBlockTableRecord
  2
block 5
340
0
102
{BLKREFS
331
13A
102
}
 70
     0
280
     1
281
     0
  0
BLOCK_RECORD
  5
165
330
1
100
AcDbSymbolTableRecord
100
AcDbBlockTableRecord
  2
block 6
340
0
102
{BLKREFS
331
166
102
}
 70
     0
280
     1
281
     0
  0
BLOCK_RECORD
  5
18C
330
1
100
AcDbSymbolTableRecord
100
AcDbBlockTableRecord
  2
block 7
340
0
102
{BLKREFS
331
18D
102
}
 70
     0
280
     1
281
     0
  0
BLOCK_RECORD
  5
1A6
330
1
100
AcDbSymbolTableRecord
100
AcDbBlockTableRecord
  2
block 8
340
0
102
{BLKREFS
331
1A7
102
}
 70
     0
280
     1
281
     0
  0
BLOCK_RECORD
  5
1BF
330
1
100
AcDbSymbolTableRecord
100
AcDbBlockTableRecord
  2
block 9
340
0
102
{BLKREFS
331
1C0
102
}
 70
     0
280
     1
281
     0
  0
BLOCK_RECORD
  5
1EB
330
1
100
AcDbSymbolTableRecord
100
AcDbBlockTableRecord
  2
block 10
340
0
102
{BLKREFS
331
1EC
102
}
 70
     0
280
     1
281
     0
  0
BLOCK_RECORD
  5
1F2
330
1
100
AcDbSymbolTableRecord
100
AcDbBlockTableRecord
  2
block 11
340
0
102
{BLKREFS
331
1F3
102
}
 70
     0
280
     1
281
     0
  0
BLOCK_RECORD
  5
226
330
1
100
AcDbSymbolTableRecord
100
AcDbBlockTableRecord
  2
block 12
340
0
102
{BLKREFS
331
227
102
}
 70
     0
280
     1
281
     0
  0
BLOCK_RECORD
  5
253
330
1
100
AcDbSymbolTableRecord
100
AcDbBlockTableRecord
  2
block 13
340
0
102
{BLKREFS
331
254
102
}
 70
     0
280
     1
281
     0
  0
BLOCK_RECORD
  5
283
330
1
100
AcDbSymbolTableRecord
100
AcDbBlockTableRecord
  2
block 14
340
0
102
{BLKREFS
331
284
102
}
 70
     0
280
     1
281
     0
  0
BLOCK_RECORD
  5
2B7
330
1
100
AcDbSymbolTableRecord
100
AcDbBlockTableRecord
  2
block 15
340
0
102
{BLKREFS
331
2B8
102
}
 70
     0
280
     1
281
     0
  0
BLOCK_RECORD
  5
2D1
330
1
100
AcDbSymbolTableRecord
100
AcDbBlockTableRecord
  2
block 16
340
0
102
{BLKREFS
331
2D2
102
}
 70
     0
280
     1
281
     0
  0
ENDTAB
  0
ENDSEC
  0
SECTION
  2
BLOCKS
  0
BLOCK
  5
20
330
1F
100
AcDbEntity
  8
0
100
AcDbBlockBegin
  2
*Model_Space
 70
     0
 10
0.0
 20
0.0
 30
0.0
  3
*Model_Space
  1

  0
ENDBLK
  5
21
330
1F
100
AcDbEntity
  8
0
100
AcDbBlockEnd
  0
BLOCK
  5
1C
330
1B
100
AcDbEntity
 67
     1
  8
0
100
AcDbBlockBegin
  2
*Paper_Space
 70
     0
 10
0.0
 20
0.0
 30
0.0
  3
*Paper_Space
  1

  0
ENDBLK
  5
1D
330
1B
100
AcDbEntity
 67
     1
  8
0
100
AcDbBlockEnd
  0
BLOCK
  5
24
330
23
100
AcDbEntity
  8
0
100
AcDbBlockBegin
  2
*Paper_Space0
 70
     0
 10
0.0
 20
0.0
 30
0.0
  3
*Paper_Space0
  1

  0
ENDBLK
  5
25
330
23
100
AcDbEntity
  8
0
100
AcDbBlockEnd
  0
BLOCK
  5
DC
330
DA
100
AcDbEntity
  8
0
100
AcDbBlockBegin
  2
block 2
 70
     0
 10
0.0
 20
0.0
 30
0.0
  3
block 2
  1

  0
POLYLINE
  5
DE
330
DA
100
AcDbEntity
  8
Strichzeichnung
 62
   250
420
  2039073
370
    25
100
AcDb2dPolyline
 66
     1
 10
0.0
 20
0.0
 30
0.0
  0
VERTEX
  5
DF
330
DE
100
AcDbEntity
  8
Strichzeichnung
 62
   250
420
  2039073
370
    25
100
AcDbVertex
100
AcDb2dVertex
 10
27.45384998235507
 20
-290.9334011554821
 30
0.0
  0
VERTEX
  5
E0
330
DE
100
AcDbEntity
  8
Strichzeichnung
 62
   250
420
  2039073
370
    25
100
AcDbVertex
100
AcDb2dVertex
 10
27.5450924267767
 20
-293.3013867104458
 30
0.0
  0
VERTEX
  5
E1
330
DE
100
AcDbEntity
  8
Strichzeichnung
 62
   250
420
  2039073
370
    25
100
AcDbVertex
100
AcDb2dVertex
 10
29.50646278739756
 20
-293.3013867104458
 30
0.0
  0
VERTEX
  5
E2
330
DE
100
AcDbEntity
  8
Strichzeichnung
 62
   250
420
  2039073
370
    25
100
AcDbVertex
100
AcDb2dVertex
 10
29.583668204045
 20
-290.9334011554821
 30
0.0
  0
SEQEND
  5
E3
330
DE
100
AcDbEntity
  8
Strichzeichnung
 62
   250
420
  2039073
370
    25
  0
POLYLINE
  5
E4
330
DA
100
AcDbEntity
  8
Strichzeichnung
 62
   250
420
  2039073
370
    25
100
AcDb2dPolyline
 66
     1
 10
0.0
 20
0.0
 30
0.0
  0
VERTEX
  5
E5
330
E4
100
AcDbEntity
  8
Strichzeichnung
 62
   250
420
  2039073
370
    25
100
AcDbVertex
100
AcDb2dVertex
 10
40.45105467355039
 20
-290.9334011554821
 30
0.0
  0
VERTEX
  5
E6
330
E4
100
AcDbEntity
  8
Strichzeichnung
 62
   250
420
  2039073
370
    25
100
AcDbVertex
100
AcDb2dVertex
 10
40.54231828463848
 20
-293.3013867104458
 30
0.0
  0
VERTEX
  5
E7
330
E4
100
AcDbEntity
  8
Strichzeichnung
 62
   250
420
  2039073
370
    25
100
AcDbVertex
100
AcDb2dVertex
 10
42.50415078414798
 20
-293.3013867104458
 30
0.0
  0
VERTEX
  5
E8
330
E4
100
AcDbEntity
  8
Strichzeichnung
 62
   250
420
  2039073
370
    25
100
AcDbVertex
100
AcDb2dVertex
 10
42.5813738396845
 20
-290.9334011554821
 30
0.0
  0
SEQEND
  5
E9
330
E4
100
AcDbEntity
  8
Strichzeichnung
 62
   250
420
  2039073
370
    25
  0
POLYLINE
  5
EA
330
DA
100
AcDbEntity
  8
Strichzeichnung
 62
   250
420
  2039073
370
    25
100
AcDb2dPolyline
 66
     1
 10
0.0
 20
0.0
 30
0.0
  0
VERTEX
  5
EB
330
EA
100
AcDbEntity
  8
Strichzeichnung
 62
   250
420
  2039073
370
    25
100
AcDbVertex
100
AcDb2dVertex
 10
27.29991892683792
 20
-290.9334011554821
 30
0.0
  0
VERTEX
  5
EC
330
EA
100
AcDbEntity
  8
Strichzeichnung
 62
   250
420
  2039073
370
    25
100
AcDbVertex
100
AcDb2dVertex
 10
27.29991892683792
 20
-286.8885217120496
 30
0.0
  0
VERTEX
  5
ED
330
EA
100
AcDbEntity
  8
Strichzeichnung
 62
   250
420
  2039073
370
    25
100
AcDbVertex
100
AcDb2dVertex
 10
42.7706391174147
 20
-286.8885217120496
 30
0.0
  0
VERTEX
  5
EE
330
EA
100
AcDbEntity
  8
Strichzeichnung
 62
   250
420
  2039073
370
    25
100
AcDbVertex
100
AcDb2dVertex
 10
42.7706391174147
 20
-290.9334011554821
 30
0.0
  0
VERTEX
  5
EF
330
EA
100
AcDbEntity
  8
Strichzeichnung
 62
   250
420
  2039073
370
    25
100
AcDbVertex
100
AcDb2dVertex
 10
27.29991892683792
 20
-290.9334011554821
 30
0.0
  0
SEQEND
  5
F0
330
EA
100
AcDbEntity
  8
Strichzeichnung
 62
   250
420
  2039073
370
    25
  0
SPLINE
  5
F1
330
DA
100
AcDbEntity
  8
Strichzeichnung
 62
   250
420
  2039073
370
    25
100
AcDbSpline
210
0.0
220
0.0
230
1.0
 70
    11
 71
     3
 72
    29
 73
    25
 74
     0
 42
0.0000000001
 43
0.0000000001
 12
1.0
 22
0.0
 32
0.0
 13
1.0
 23
0.0
 33
0.0
 40
0.0
 40
0.0
 40
0.0
 40
0.0
 40
1.0
 40
1.0
 40
1.0
 40
2.0
 40
2.0
 40
2.0
 40
3.0
 40
3.0
 40
3.0
 40
4.0
 40
4.0
 40
4.0
 40
5.0
 40
5.0
 40
5.0
 40
6.0
 40
6.0
 40
6.0
 40
7.0
 40
7.0
 40
7.0
 40
8.0
 40
8.0
 40
8.0
 40
8.0
 10
26.96277978803354
 20
-286.4637419899326
 30
0.0
 10
26.96277978803354
 20
-286.4637419899326
 30
0.0
 10
27.4671602879073
 20
-286.8885217120496
 30
0.0
 10
28.56958378763187
 20
-286.8885217120496
 30
0.0
 10
29.67224858735625
 20
-286.8885217120496
 30
0.0
 10
41.10528106227553
 20
-286.8574419898348
 30
0.0
 10
41.66552745102434
 20
-286.8574419898348
 30
0.0
 10
42.22630300644011
 20
-286.8574419898348
 30
0.0
 10
43.12302883954899
 20
-286.4326622677191
 30
0.0
 10
43.12302883954899
 20
-286.4326622677191
 30
0.0
 10
43.12302883954899
 20
-286.4326622677191
 30
0.0
 10
43.12302883954899
 20
-283.1295333796548
 30
0.0
 10
43.12302883954899
 20
-283.1295333796548
 30
0.0
 10
43.12302883954899
 20
-283.1295333796548
 30
0.0
 10
42.59954189523568
 20
-282.6495439353304
 30
0.0
 10
41.51623189550637
 20
-282.575425324239
 30
0.0
 10
40.4326749513328
 20
-282.5018006020342
 30
0.0
 10
29.33583299577341
 20
-282.5147122686974
 30
0.0
 10
28.53206587097458
 20
-282.6069989353416
 30
0.0
 10
27.72903076006424
 20
-282.699003379763
 30
0.0
 10
26.96277978803354
 20
-282.9944900463555
 30
0.0
 10
26.96277978803354
 20
-282.9944900463555
 30
0.0
 10
26.96277978803354
 20
-282.9944900463555
 30
0.0
 10
26.96277978803354
 20
-286.4637419899326
 30
0.0
 10
26.96277978803354
 20
-286.4637419899326
 30
0.0
  0
ENDBLK
  5
DD
330
DA
100
AcDbEntity
  8
0
100
AcDbBlockEnd
  0
BLOCK
  5
F4
330
F2
100
AcDbEntity
  8
0
100
AcDbBlockBegin
  2
block 3
 70
     0
 10
0.0
 20
0.0
 30
0.0
  3
block 3
  1

  0
POLYLINE
  5
F6
330
F2
100
AcDbEntity
  8
Strichzeichnung
 62
   250
420
  2039073
370
    25
100
AcDb2dPolyline
 66
     1
 10
0.0
 20
0.0
 30
0.0
  0
VERTEX
  5
F7
330
F6
100
AcDbEntity
  8
Strichzeichnung
 62
   250
420
  2039073
370
    25
100
AcDbVertex
100
AcDb2dVertex
 10
117.2386951474387
 20
-290.9425028221463
 30
0.0
  0
VERTEX
  5
F8
330
F6
100
AcDbEntity
  8
Strichzeichnung
 62
   250
420
  2039073
370
    25
100
AcDbVertex
100
AcDb2dVertex
 10
117.3299587585271
 20
-293.31048837711
 30
0.0
  0
VERTEX
  5
F9
330
F6
100
AcDbEntity
  8
Strichzeichnung
 62
   250
420
  2039073
370
    25
100
AcDbVertex
100
AcDb2dVertex
 10
119.2913317408296
 20
-293.31048837711
 30
0.0
  0
VERTEX
  5
FA
330
F6
100
AcDbEntity
  8
Strichzeichnung
 62
   250
420
  2039073
370
    25
100
AcDbVertex
100
AcDb2dVertex
 10
119.3685195166381
 20
-290.9425028221463
 30
0.0
  0
SEQEND
  5
FB
330
F6
100
AcDbEntity
  8
Strichzeichnung
 62
   250
420
  2039073
370
    25
  0
POLYLINE
  5
FC
330
F2
100
AcDbEntity
  8
Strichzeichnung
 62
   250
420
  2039073
370
    25
100
AcDb2dPolyline
 66
     1
 10
0.0
 20
0.0
 30
0.0
  0
VERTEX
  5
FD
330
FC
100
AcDbEntity
  8
Strichzeichnung
 62
   250
420
  2039073
370
    25
100
AcDbVertex
100
AcDb2dVertex
 10
130.2359092393876
 20
-290.9425028221463
 30
0.0
  0
VERTEX
  5
FE
330
FC
100
AcDbEntity
  8
Strichzeichnung
 62
   250
420
  2039073
370
    25
100
AcDbVertex
100
AcDb2dVertex
 10
130.3271728481704
 20
-293.31048837711
 30
0.0
  0
VERTEX
  5
FF
330
FC
100
AcDbEntity
  8
Strichzeichnung
 62
   250
420
  2039073
370
    25
100
AcDbVertex
100
AcDb2dVertex
 10
132.2890052981205
 20
-293.31048837711
 30
0.0
  0
VERTEX
  5
100
330
FC
100
AcDbEntity
  8
Strichzeichnung
 62
   250
420
  2039073
370
    25
100
AcDbVertex
100
AcDb2dVertex
 10
132.3662283517056
 20
-290.9425028221463
 30
0.0
  0
SEQEND
  5
101
330
FC
100
AcDbEntity
  8
Strichzeichnung
 62
   250
420
  2039073
370
    25
  0
POLYLINE
  5
102
330
F2
100
AcDbEntity
  8
Strichzeichnung
 62
   250
420
  2039073
370
    25
100
AcDb2dPolyline
 66
     1
 10
0.0
 20
0.0
 30
0.0
  0
VERTEX
  5
103
330
102
100
AcDbEntity
  8
Strichzeichnung
 62
   250
420
  2039073
370
    25
100
AcDbVertex
100
AcDb2dVertex
 10
117.0847782030326
 20
-290.9425028221463
 30
0.0
  0
VERTEX
  5
104
330
102
100
AcDbEntity
  8
Strichzeichnung
 62
   250
420
  2039073
370
    25
100
AcDbVertex
100
AcDb2dVertex
 10
117.0847782030326
 20
-286.8976233787138
 30
0.0
  0
VERTEX
  5
105
330
102
100
AcDbEntity
  8
Strichzeichnung
 62
   250
420
  2039073
370
    25
100
AcDbVertex
100
AcDb2dVertex
 10
132.5554936246548
 20
-286.8976233787138
 30
0.0
  0
VERTEX
  5
106
330
102
100
AcDbEntity
  8
Strichzeichnung
 62
   250
420
  2039073
370
    25
100
AcDbVertex
100
AcDb2dVertex
 10
132.5554936246548
 20
-290.9425028221463
 30
0.0
  0
VERTEX
  5
107
330
102
100
AcDbEntity
  8
Strichzeichnung
 62
   250
420
  2039073
370
    25
100
AcDbVertex
100
AcDb2dVertex
 10
117.0847782030326
 20
-290.9425028221463
 30
0.0
  0
SEQEND
  5
108
330
102
100
AcDbEntity
  8
Strichzeichnung
 62
   250
420
  2039073
370
    25
  0
SPLINE
  5
109
330
F2
100
AcDbEntity
  8
Strichzeichnung
 62
   250
420
  2039073
370
    25
100
AcDbSpline
210
0.0
220
0.0
230
1.0
 70
    11
 71
     3
 72
    29
 73
    25
 74
     0
 42
0.0000000001
 43
0.0000000001
 12
1.0
 22
0.0
 32
0.0
 13
1.0
 23
0.0
 33
0.0
 40
0.0
 40
0.0
 40
0.0
 40
0.0
 40
1.0
 40
1.0
 40
1.0
 40
2.0
 40
2.0
 40
2.0
 40
3.0
 40
3.0
 40
3.0
 40
4.0
 40
4.0
 40
4.0
 40
5.0
 40
5.0
 40
5.0
 40
6.0
 40
6.0
 40
6.0
 40
7.0
 40
7.0
 40
7.0
 40
8.0
 40
8.0
 40
8.0
 40
8.0
 10
116.7476284808948
 20
-286.4728436565968
 30
0.0
 10
116.7476284808948
 20
-286.4728436565968
 30
0.0
 10
117.2520301474353
 20
-286.8976233787138
 30
0.0
 10
118.3544254249375
 20
-286.8976233787138
 30
0.0
 10
119.4571020143782
 20
-286.8976233787138
 30
0.0
 10
130.8901356115864
 20
-286.866543656499
 30
0.0
 10
131.4503831994413
 20
-286.866543656499
 30
0.0
 10
132.0111575274312
 20
-286.866543656499
 30
0.0
 10
132.9078833378868
 20
-286.4417639343833
 30
0.0
 10
132.9078833378868
 20
-286.4417639343833
 30
0.0
 10
132.9078833378868
 20
-286.4417639343833
 30
0.0
 10
132.9078833378868
 20
-283.1386350463203
 30
0.0
 10
132.9078833378868
 20
-283.1386350463203
 30
0.0
 10
132.9078833378868
 20
-283.1386350463203
 30
0.0
 10
132.3843964067977
 20
-282.6586456019958
 30
0.0
 10
131.3010864344355
 20
-282.5845269909032
 30
0.0
 10
130.2175295176343
 20
-282.5109022686984
 30
0.0
 10
119.1206931340718
 20
-282.5238139353629
 30
0.0
 10
118.3169251471692
 20
-282.6161006020058
 30
0.0
 10
117.5138970918143
 20
-282.7081050464272
 30
0.0
 10
116.7476284808948
 20
-283.0035917130197
 30
0.0
 10
116.7476284808948
 20
-283.0035917130197
 30
0.0
 10
116.7476284808948
 20
-283.0035917130197
 30
0.0
 10
116.7476284808948
 20
-286.4728436565968
 30
0.0
 10
116.7476284808948
 20
-286.4728436565968
 30
0.0
  0
ENDBLK
  5
F5
330
F2
100
AcDbEntity
  8
0
100
AcDbBlockEnd
  0
BLOCK
  5
10C
330
10A
100
AcDbEntity
  8
0
100
AcDbBlockBegin
  2
block 4
 70
     0
 10
0.0
 20
0.0
 30
0.0
  3
block 4
  1

  0
POLYLINE
  5
10E
330
10A
100
AcDbEntity
  8
Strichzeichnung
 62
   250
420
  2039073
370
    25
100
AcDb2dPolyline
 66
     1
 10
0.0
 20
0.0
 30
0.0
  0
VERTEX
  5
10F
330
10E
100
AcDbEntity
  8
Strichzeichnung
 62
   250
420
  2039073
370
    25
100
AcDbVertex
100
AcDb2dVertex
 10
26.73290626031327
 20
-216.5332028407493
 30
0.0
  0
VERTEX
  5
110
330
10E
100
AcDbEntity
  8
Strichzeichnung
 62
   250
420
  2039073
370
    25
100
AcDbVertex
100
AcDb2dVertex
 10
26.73290978809096
 20
-227.3498986713778
 30
0.0
  0
VERTEX
  5
111
330
10E
100
AcDbEntity
  8
Strichzeichnung
 62
   250
420
  2039073
370
    25
100
AcDbVertex
100
AcDb2dVertex
 10
29.32422484299853
 20
-227.3498986713778
 30
0.0
  0
VERTEX
  5
112
330
10E
100
AcDbEntity
  8
Strichzeichnung
 62
   250
420
  2039073
370
    25
100
AcDbVertex
100
AcDb2dVertex
 10
29.3242227263321
 20
-216.5332028407493
 30
0.0
  0
VERTEX
  5
113
330
10E
100
AcDbEntity
  8
Strichzeichnung
 62
   250
420
  2039073
370
    25
100
AcDbVertex
100
AcDb2dVertex
 10
26.73290626031327
 20
-216.5332028407493
 30
0.0
  0
SEQEND
  5
114
330
10E
100
AcDbEntity
  8
Strichzeichnung
 62
   250
420
  2039073
370
    25
  0
POLYLINE
  5
115
330
10A
100
AcDbEntity
  8
Strichzeichnung
 62
   250
420
  2039073
370
    25
100
AcDb2dPolyline
 66
     1
 10
0.0
 20
0.0
 30
0.0
  0
VERTEX
  5
116
330
115
100
AcDbEntity
  8
Strichzeichnung
 62
   250
420
  2039073
370
    25
100
AcDbVertex
100
AcDb2dVertex
 10
79.04451896399841
 20
-216.5332028407493
 30
0.0
  0
VERTEX
  5
117
330
115
100
AcDbEntity
  8
Strichzeichnung
 62
   250
420
  2039073
370
    25
100
AcDbVertex
100
AcDb2dVertex
 10
79.04451896399841
 20
-227.3498633936003
 30
0.0
  0
VERTEX
  5
118
330
115
100
AcDbEntity
  8
Strichzeichnung
 62
   250
420
  2039073
370
    25
100
AcDbVertex
100
AcDb2dVertex
 10
81.63584806455476
 20
-227.3498633936003
 30
0.0
  0
VERTEX
  5
119
330
115
100
AcDbEntity
  8
Strichzeichnung
 62
   250
420
  2039073
370
    25
100
AcDbVertex
100
AcDb2dVertex
 10
81.63584806455476
 20
-216.5332028407493
 30
0.0
  0
VERTEX
  5
11A
330
115
100
AcDbEntity
  8
Strichzeichnung
 62
   250
420
  2039073
370
    25
100
AcDbVertex
100
AcDb2dVertex
 10
79.04451896399841
 20
-216.5332028407493
 30
0.0
  0
SEQEND
  5
11B
330
115
100
AcDbEntity
  8
Strichzeichnung
 62
   250
420
  2039073
370
    25
  0
POLYLINE
  5
11C
330
10A
100
AcDbEntity
  8
Strichzeichnung
 62
   250
420
  2039073
370
    25
100
AcDb2dPolyline
 66
     1
 10
0.0
 20
0.0
 30
0.0
  0
VERTEX
  5
11D
330
11C
100
AcDbEntity
  8
Strichzeichnung
 62
   250
420
  2039073
370
    25
100
AcDbVertex
100
AcDb2dVertex
 10
26.934610482485
 20
-227.3498986713778
 30
0.0
  0
VERTEX
  5
11E
330
11C
100
AcDbEntity
  8
Strichzeichnung
 62
   250
420
  2039073
370
    25
100
AcDbVertex
100
AcDb2dVertex
 10
27.0270770657951
 20
-229.7360522818924
 30
0.0
  0
VERTEX
  5
11F
330
11C
100
AcDbEntity
  8
Strichzeichnung
 62
   250
420
  2039073
370
    25
100
AcDbVertex
100
AcDb2dVertex
 10
29.02586303751774
 20
-229.7360522818924
 30
0.0
  0
VERTEX
  5
120
330
11C
100
AcDbEntity
  8
Strichzeichnung
 62
   250
420
  2039073
370
    25
100
AcDbVertex
100
AcDb2dVertex
 10
29.10476813749788
 20
-227.3498986713778
 30
0.0
  0
SEQEND
  5
121
330
11C
100
AcDbEntity
  8
Strichzeichnung
 62
   250
420
  2039073
370
    25
  0
POLYLINE
  5
122
330
10A
100
AcDbEntity
  8
Strichzeichnung
 62
   250
420
  2039073
370
    25
100
AcDb2dPolyline
 66
     1
 10
0.0
 20
0.0
 30
0.0
  0
VERTEX
  5
123
330
122
100
AcDbEntity
  8
Strichzeichnung
 62
   250
420
  2039073
370
    25
100
AcDbVertex
100
AcDb2dVertex
 10
79.2550920141818
 20
-227.3498633936003
 30
0.0
  0
VERTEX
  5
124
330
122
100
AcDbEntity
  8
Strichzeichnung
 62
   250
420
  2039073
370
    25
100
AcDbVertex
100
AcDb2dVertex
 10
79.34804895625471
 20
-229.7360170041152
 30
0.0
  0
VERTEX
  5
125
330
122
100
AcDbEntity
  8
Strichzeichnung
 62
   250
420
  2039073
370
    25
100
AcDbVertex
100
AcDb2dVertex
 10
81.3468525163721
 20
-229.7360170041152
 30
0.0
  0
VERTEX
  5
126
330
122
100
AcDbEntity
  8
Strichzeichnung
 62
   250
420
  2039073
370
    25
100
AcDbVertex
100
AcDb2dVertex
 10
81.42523973659482
 20
-227.3498633936003
 30
0.0
  0
SEQEND
  5
127
330
122
100
AcDbEntity
  8
Strichzeichnung
 62
   250
420
  2039073
370
    25
  0
POLYLINE
  5
128
330
10A
100
AcDbEntity
  8
Strichzeichnung
 62
   250
420
  2039073
370
    25
100
AcDb2dPolyline
 66
     1
 10
0.0
 20
0.0
 30
0.0
  0
VERTEX
  5
129
330
128
100
AcDbEntity
  8
Strichzeichnung
 62
   250
420
  2039073
370
    25
100
AcDbVertex
100
AcDb2dVertex
 10
29.33310284855198
 20
-227.3498986713778
 30
0.0
  0
VERTEX
  5
12A
330
128
100
AcDbEntity
  8
Strichzeichnung
 62
   250
420
  2039073
370
    25
100
AcDbVertex
100
AcDb2dVertex
 10
29.33310214299651
 20
-223.2736925612863
 30
0.0
  0
VERTEX
  5
12B
330
128
100
AcDbEntity
  8
Strichzeichnung
 62
   250
420
  2039073
370
    25
100
AcDbVertex
100
AcDb2dVertex
 10
79.04451896399841
 20
-223.2736572835085
 30
0.0
  0
VERTEX
  5
12C
330
128
100
AcDbEntity
  8
Strichzeichnung
 62
   250
420
  2039073
370
    25
100
AcDbVertex
100
AcDb2dVertex
 10
79.04451896399841
 20
-227.3498633936003
 30
0.0
  0
VERTEX
  5
12D
330
128
100
AcDbEntity
  8
Strichzeichnung
 62
   250
420
  2039073
370
    25
100
AcDbVertex
100
AcDb2dVertex
 10
29.33310284855198
 20
-227.3498986713778
 30
0.0
  0
SEQEND
  5
12E
330
128
100
AcDbEntity
  8
Strichzeichnung
 62
   250
420
  2039073
370
    25
  0
SPLINE
  5
12F
330
10A
100
AcDbEntity
  8
Strichzeichnung
 62
   250
420
  2039073
370
    25
100
AcDbSpline
210
0.0
220
0.0
230
1.0
 70
    11
 71
     3
 72
    29
 73
    25
 74
     0
 42
0.0000000001
 43
0.0000000001
 12
1.0
 22
0.0
 32
0.0
 13
1.0
 23
0.0
 33
0.0
 40
0.0
 40
0.0
 40
0.0
 40
0.0
 40
1.0
 40
1.0
 40
1.0
 40
2.0
 40
2.0
 40
2.0
 40
3.0
 40
3.0
 40
3.0
 40
4.0
 40
4.0
 40
4.0
 40
5.0
 40
5.0
 40
5.0
 40
6.0
 40
6.0
 40
6.0
 40
7.0
 40
7.0
 40
7.0
 40
8.0
 40
8.0
 40
8.0
 40
8.0
 10
29.33310179021861
 20
-222.8457378391714
 30
0.0
 10
29.33310179021861
 20
-222.8457378391714
 30
0.0
 10
29.85116900953345
 20
-223.2736925612863
 30
0.0
 10
30.98397020369494
 20
-223.2736925612863
 30
0.0
 10
32.11723706452277
 20
-223.2736925612863
 30
0.0
 10
52.16006661506712
 20
-223.2736572835085
 30
0.0
 10
52.7360821704791
 20
-223.2736572835085
 30
0.0
 10
53.31234467033501
 20
-223.2736572835085
 30
0.0
 10
54.23429411454903
 20
-222.8457378391714
 30
0.0
 10
54.23429411454903
 20
-222.8457378391714
 30
0.0
 10
54.23429411454903
 20
-222.8457378391714
 30
0.0
 10
54.23429411454903
 20
-219.5167150622259
 30
0.0
 10
54.23429411454903
 20
-219.5167150622259
 30
0.0
 10
54.23429411454903
 20
-219.5167150622259
 30
0.0
 10
53.69701355912775
 20
-219.0332331179023
 30
0.0
 10
52.58297661496175
 20
-218.9590086734765
 30
0.0
 10
51.46865744857368
 20
-218.8846078401617
 30
0.0
 10
31.77179000905351
 20
-218.8656989512768
 30
0.0
 10
30.94599367592668
 20
-218.9590439512536
 30
0.0
 10
30.11969287057767
 20
-219.0518950623413
 30
0.0
 10
29.33310108466314
 20
-219.3495336733788
 30
0.0
 10
29.33310108466314
 20
-219.3495336733788
 30
0.0
 10
29.33310108466314
 20
-219.3495336733788
 30
0.0
 10
29.33310179021861
 20
-222.8457378391714
 30
0.0
 10
29.33310179021861
 20
-222.8457378391714
 30
0.0
  0
SPLINE
  5
130
330
10A
100
AcDbEntity
  8
Strichzeichnung
 62
   250
420
  2039073
370
    25
100
AcDbSpline
210
0.0
220
0.0
230
1.0
 70
    11
 71
     3
 72
    29
 73
    25
 74
     0
 42
0.0000000001
 43
0.0000000001
 12
1.0
 22
0.0
 32
0.0
 13
1.0
 23
0.0
 33
0.0
 40
0.0
 40
0.0
 40
0.0
 40
0.0
 40
1.0
 40
1.0
 40
1.0
 40
2.0
 40
2.0
 40
2.0
 40
3.0
 40
3.0
 40
3.0
 40
4.0
 40
4.0
 40
4.0
 40
5.0
 40
5.0
 40
5.0
 40
6.0
 40
6.0
 40
6.0
 40
7.0
 40
7.0
 40
7.0
 40
8.0
 40
8.0
 40
8.0
 40
8.0
 10
54.23429411454903
 20
-222.8457378391714
 30
0.0
 10
54.23429411454903
 20
-222.8457378391714
 30
0.0
 10
54.75411216997465
 20
-223.2736572835085
 30
0.0
 10
55.89107966969032
 20
-223.2736572835085
 30
0.0
 10
57.02854105829511
 20
-223.2736572835085
 30
0.0
 10
76.9631301282105
 20
-223.2736572835085
 30
0.0
 10
77.54136816901365
 20
-223.2736572835085
 30
0.0
 10
78.11960620981712
 20
-223.2736572835085
 30
0.0
 10
79.04451896399841
 20
-222.8457378391714
 30
0.0
 10
79.04451896399841
 20
-222.8457378391714
 30
0.0
 10
79.04451896399841
 20
-222.8457378391714
 30
0.0
 10
79.04451896399841
 20
-219.5166797844477
 30
0.0
 10
79.04451896399841
 20
-219.5166797844477
 30
0.0
 10
79.04451896399841
 20
-219.5166797844477
 30
0.0
 10
78.50547453330645
 20
-219.0331978401238
 30
0.0
 10
77.38748650627284
 20
-218.9590086734765
 30
0.0
 10
76.26974542367768
 20
-218.8845725623832
 30
0.0
 10
56.68186633615939
 20
-218.8656636734993
 30
0.0
 10
55.85237994747778
 20
-218.9590086734765
 30
0.0
 10
55.02388133657377
 20
-219.0518950623413
 30
0.0
 10
54.23429411454903
 20
-219.3494983956003
 30
0.0
 10
54.23429411454903
 20
-219.3494983956003
 30
0.0
 10
54.23429411454903
 20
-219.3494983956003
 30
0.0
 10
54.23429411454903
 20
-222.8457378391714
 30
0.0
 10
54.23429411454903
 20
-222.8457378391714
 30
0.0
  0
POLYLINE
  5
131
330
10A
100
AcDbEntity
  8
Strichzeichnung
 62
   250
420
  2039073
370
    25
100
AcDb2dPolyline
 66
     1
 10
0.0
 20
0.0
 30
0.0
  0
VERTEX
  5
132
330
131
100
AcDbEntity
  8
Strichzeichnung
 62
   250
420
  2039073
370
    25
100
AcDbVertex
100
AcDb2dVertex
 10
54.23429411454903
 20
-223.2736572835085
 30
0.0
  0
VERTEX
  5
133
330
131
100
AcDbEntity
  8
Strichzeichnung
 62
   250
420
  2039073
370
    25
100
AcDbVertex
100
AcDb2dVertex
 10
54.23429411454903
 20
-227.3498633936003
 30
0.0
  0
SEQEND
  5
134
330
131
100
AcDbEntity
  8
Strichzeichnung
 62
   250
420
  2039073
370
    25
  0
SPLINE
  5
135
330
10A
100
AcDbEntity
  8
Strichzeichnung
 62
   250
420
  2039073
370
    25
100
AcDbSpline
210
0.0
220
0.0
230
1.0
 70
     8
 71
     3
 72
    29
 73
    25
 74
     0
 42
0.0000000001
 43
0.0000000001
 12
1.0
 22
0.0
 32
0.0
 13
1.0
 23
0.0
 33
0.0
 40
0.0
 40
0.0
 40
0.0
 40
0.0
 40
1.0
 40
1.0
 40
1.0
 40
2.0
 40
2.0
 40
2.0
 40
3.0
 40
3.0
 40
3.0
 40
4.0
 40
4.0
 40
4.0
 40
5.0
 40
5.0
 40
5.0
 40
6.0
 40
6.0
 40
6.0
 40
7.0
 40
7.0
 40
7.0
 40
8.0
 40
8.0
 40
8.0
 40
8.0
 10
26.74128826031119
 20
-216.5329911740819
 30
0.0
 10
26.74128826031119
 20
-216.5329911740819
 30
0.0
 10
25.41739439953103
 20
-216.5140822851983
 30
0.0
 10
25.30323551067046
 20
-215.5471183965512
 30
0.0
 10
25.18907662181021
 20
-214.5802956190148
 30
0.0
 10
24.99698912185825
 20
-213.7169425636751
 30
0.0
 10
25.56831273282645
 20
-213.4194450637493
 30
0.0
 10
26.13938587157273
 20
-213.121912286046
 30
0.0
 10
28.32778989880332
 20
-213.241151174905
 30
0.0
 10
28.97481609308612
 20
-213.3528406193216
 30
0.0
 10
29.62184475681322
 20
-213.4644595081834
 30
0.0
 10
30.63380298156009
 20
-213.873752285858
 30
0.0
 10
31.1284503425475
 20
-214.2827981190899
 30
0.0
 10
31.62309417575722
 20
-214.6919497856538
 30
0.0
 10
33.06953245317355
 20
-216.2724647852587
 30
0.0
 10
33.33633828644019
 20
-217.1838661739193
 30
0.0
 10
33.79325606410359
 20
-218.7460720068626
 30
0.0
 10
33.11045467538554
 20
-218.8775875623849
 30
0.0
 10
32.68980245326851
 20
-218.9059156179333
 30
0.0
 10
32.26888564781817
 20
-218.9345964512594
 30
0.0
 10
31.27121245362311
 20
-218.9059156179333
 30
0.0
 10
30.40523473161734
 20
-218.9059156179333
 30
0.0
 10
29.75771464844575
 20
-218.9059156179333
 30
0.0
 10
29.33310108466314
 20
-219.0064925623529
 30
0.0
 10
29.33951176243933
 20
-218.076887840363
 30
0.0
  0
SPLINE
  5
136
330
10A
100
AcDbEntity
  8
Strichzeichnung
 62
   250
420
  2039073
370
    25
100
AcDbSpline
210
0.0
220
0.0
230
1.0
 70
     8
 71
     3
 72
    20
 73
    16
 74
     0
 42
0.0000000001
 43
0.0000000001
 12
1.0
 22
0.0
 32
0.0
 13
1.0
 23
0.0
 33
0.0
 40
0.0
 40
0.0
 40
0.0
 40
0.0
 40
1.0
 40
1.0
 40
1.0
 40
2.0
 40
2.0
 40
2.0
 40
3.0
 40
3.0
 40
3.0
 40
4.0
 40
4.0
 40
4.0
 40
5.0
 40
5.0
 40
5.0
 40
5.0
 10
28.97481609308612
 20
-213.3528406193216
 30
0.0
 10
28.97481609308612
 20
-213.3528406193216
 30
0.0
 10
28.93413023198498
 20
-212.4786220084302
 30
0.0
 10
28.97481609308612
 20
-211.7534167308328
 30
0.0
 10
29.01550160140902
 20
-211.0280703421253
 30
0.0
 10
29.47217067073934
 20
-210.6375806200005
 30
0.0
 10
29.98628995394419
 20
-210.6375806200005
 30
0.0
 10
30.50016723159344
 20
-210.6375806200005
 30
0.0
 10
52.70450855937587
 20
-210.6375806200005
 30
0.0
 10
53.27607911478864
 20
-210.6375806200005
 30
0.0
 10
53.84690883686804
 20
-210.6375806200005
 30
0.0
 10
54.22642717010636
 20
-210.8982128421579
 30
0.0
 10
54.20790633677773
 20
-211.9953517307721
 30
0.0
 10
54.18966772567119
 20
-213.0925258971644
 30
0.0
 10
54.20790633677773
 20
-219.3595172844874
 30
0.0
 10
54.20790633677773
 20
-219.3595172844874
 30
0.0
  0
SPLINE
  5
137
330
10A
100
AcDbEntity
  8
Strichzeichnung
 62
   250
420
  2039073
370
    25
100
AcDbSpline
210
0.0
220
0.0
230
1.0
 70
     8
 71
     3
 72
    20
 73
    16
 74
     0
 42
0.0000000001
 43
0.0000000001
 12
1.0
 22
0.0
 32
0.0
 13
1.0
 23
0.0
 33
0.0
 40
0.0
 40
0.0
 40
0.0
 40
0.0
 40
1.0
 40
1.0
 40
1.0
 40
2.0
 40
2.0
 40
2.0
 40
3.0
 40
3.0
 40
3.0
 40
4.0
 40
4.0
 40
4.0
 40
5.0
 40
5.0
 40
5.0
 40
5.0
 10
79.32684701235118
 20
-213.352805341544
 30
0.0
 10
79.32684701235118
 20
-213.352805341544
 30
0.0
 10
79.36702840021495
 20
-212.4785867306511
 30
0.0
 10
79.32684701235118
 20
-211.7533814530556
 30
0.0
 10
79.28567784673483
 20
-211.0280703421253
 30
0.0
 10
78.82900702505214
 20
-210.6375806200005
 30
0.0
 10
78.31486870483556
 20
-210.6375806200005
 30
0.0
 10
77.801012606834
 20
-210.6375806200005
 30
0.0
 10
55.69578189196162
 20
-210.6375806200005
 30
0.0
 10
55.12495216988189
 20
-210.6375806200005
 30
0.0
 10
54.55362855891369
 20
-210.6375806200005
 30
0.0
 10
54.1746393923417
 20
-210.8982128421579
 30
0.0
 10
54.19287800344824
 20
-211.9953517307721
 30
0.0
 10
54.21111661455478
 20
-213.0925258971644
 30
0.0
 10
54.19287800344824
 20
-219.3595172844874
 30
0.0
 10
54.19287800344824
 20
-219.3595172844874
 30
0.0
  0
SPLINE
  5
138
330
10A
100
AcDbEntity
  8
Strichzeichnung
 62
   250
420
  2039073
370
    25
100
AcDbSpline
210
0.0
220
0.0
230
1.0
 70
     8
 71
     3
 72
    29
 73
    25
 74
     0
 42
0.0000000001
 43
0.0000000001
 12
1.0
 22
0.0
 32
0.0
 13
1.0
 23
0.0
 33
0.0
 40
0.0
 40
0.0
 40
0.0
 40
0.0
 40
1.0
 40
1.0
 40
1.0
 40
2.0
 40
2.0
 40
2.0
 40
3.0
 40
3.0
 40
3.0
 40
4.0
 40
4.0
 40
4.0
 40
5.0
 40
5.0
 40
5.0
 40
6.0
 40
6.0
 40
6.0
 40
7.0
 40
7.0
 40
7.0
 40
8.0
 40
8.0
 40
8.0
 40
8.0
 10
81.63831750893621
 20
-216.5433275629692
 30
0.0
 10
81.63831750893621
 20
-216.5433275629692
 30
0.0
 10
82.96860719721991
 20
-216.5140470074202
 30
0.0
 10
83.08276608319636
 20
-215.5471183965512
 30
0.0
 10
83.19692496917283
 20
-214.5802956190148
 30
0.0
 10
83.38876551983411
 20
-213.7169072858976
 30
0.0
 10
82.81768886773683
 20
-213.4194097859721
 30
0.0
 10
82.24661355199031
 20
-213.1218770082685
 30
0.0
 10
80.0584375492423
 20
-213.2411158971278
 30
0.0
 10
79.41140784352719
 20
-213.352805341544
 30
0.0
 10
78.76413119337393
 20
-213.4644595081834
 30
0.0
 10
77.75243510807333
 20
-213.8737170080805
 30
0.0
 10
77.25777012069328
 20
-214.2827628413112
 30
0.0
 10
76.76292874442885
 20
-214.6919145078757
 30
0.0
 10
75.31643405910978
 20
-216.2724295074811
 30
0.0
 10
75.04916962148383
 20
-217.1838661739193
 30
0.0
 10
74.59299268867743
 20
-218.7460367290844
 30
0.0
 10
75.27575878236972
 20
-218.8775875623849
 30
0.0
 10
75.69644627163709
 20
-218.9058803401558
 30
0.0
 10
76.1170996646338
 20
-218.9345611734822
 30
0.0
 10
77.11503623544584
 20
-218.9058803401558
 30
0.0
 10
77.98128204667972
 20
-218.9058803401558
 30
0.0
 10
78.62831175239452
 20
-218.9058803401558
 30
0.0
 10
79.05291633056655
 20
-219.0064572845754
 30
0.0
 10
79.04698840837986
 20
-218.0768525625851
 30
0.0
  0
ENDBLK
  5
10D
330
10A
100
AcDbEntity
  8
0
100
AcDbBlockEnd
  0
BLOCK
  5
13B
330
139
100
AcDbEntity
  8
0
100
AcDbBlockBegin
  2
block 5
 70
     0
 10
0.0
 20
0.0
 30
0.0
  3
block 5
  1

  0
POLYLINE
  5
13D
330
139
100
AcDbEntity
  8
Strichzeichnung
 62
   250
420
  2039073
370
    25
100
AcDb2dPolyline
 66
     1
 10
0.0
 20
0.0
 30
0.0
  0
VERTEX
  5
13E
330
13D
100
AcDbEntity
  8
Strichzeichnung
 62
   250
420
  2039073
370
    25
100
AcDbVertex
100
AcDb2dVertex
 10
26.89471131582814
 20
-89.77220981688389
 30
0.0
  0
VERTEX
  5
13F
330
13D
100
AcDbEntity
  8
Strichzeichnung
 62
   250
420
  2039073
370
    25
100
AcDbVertex
100
AcDb2dVertex
 10
26.89471484360615
 20
-100.583155369736
 30
0.0
  0
VERTEX
  5
140
330
13D
100
AcDbEntity
  8
Strichzeichnung
 62
   250
420
  2039073
370
    25
100
AcDbVertex
100
AcDb2dVertex
 10
29.38512487076109
 20
-100.583155369736
 30
0.0
  0
VERTEX
  5
141
330
13D
100
AcDbEntity
  8
Strichzeichnung
 62
   250
420
  2039073
370
    25
100
AcDbVertex
100
AcDb2dVertex
 10
29.38512275409467
 20
-89.77220981688389
 30
0.0
  0
VERTEX
  5
142
330
13D
100
AcDbEntity
  8
Strichzeichnung
 62
   250
420
  2039073
370
    25
100
AcDbVertex
100
AcDb2dVertex
 10
26.89471131582814
 20
-89.77220981688389
 30
0.0
  0
SEQEND
  5
143
330
13D
100
AcDbEntity
  8
Strichzeichnung
 62
   250
420
  2039073
370
    25
  0
POLYLINE
  5
144
330
139
100
AcDbEntity
  8
Strichzeichnung
 62
   250
420
  2039073
370
    25
100
AcDb2dPolyline
 66
     1
 10
0.0
 20
0.0
 30
0.0
  0
VERTEX
  5
145
330
144
100
AcDbEntity
  8
Strichzeichnung
 62
   250
420
  2039073
370
    25
100
AcDbVertex
100
AcDb2dVertex
 10
63.99657244544175
 20
-89.77217453910573
 30
0.0
  0
VERTEX
  5
146
330
144
100
AcDbEntity
  8
Strichzeichnung
 62
   250
420
  2039073
370
    25
100
AcDbVertex
100
AcDb2dVertex
 10
63.99657244544175
 20
-100.583155369736
 30
0.0
  0
VERTEX
  5
147
330
144
100
AcDbEntity
  8
Strichzeichnung
 62
   250
420
  2039073
370
    25
100
AcDbVertex
100
AcDb2dVertex
 10
66.48697188926363
 20
-100.583155369736
 30
0.0
  0
VERTEX
  5
148
330
144
100
AcDbEntity
  8
Strichzeichnung
 62
   250
420
  2039073
370
    25
100
AcDbVertex
100
AcDb2dVertex
 10
66.48697188926363
 20
-89.77217453910573
 30
0.0
  0
VERTEX
  5
149
330
144
100
AcDbEntity
  8
Strichzeichnung
 62
   250
420
  2039073
370
    25
100
AcDbVertex
100
AcDb2dVertex
 10
63.99657244544175
 20
-89.77217453910573
 30
0.0
  0
SEQEND
  5
14A
330
144
100
AcDbEntity
  8
Strichzeichnung
 62
   250
420
  2039073
370
    25
  0
POLYLINE
  5
14B
330
139
100
AcDbEntity
  8
Strichzeichnung
 62
   250
420
  2039073
370
    25
100
AcDb2dPolyline
 66
     1
 10
0.0
 20
0.0
 30
0.0
  0
VERTEX
  5
14C
330
14B
100
AcDbEntity
  8
Strichzeichnung
 62
   250
420
  2039073
370
    25
100
AcDbVertex
100
AcDb2dVertex
 10
27.08832634355774
 20
-100.583155369736
 30
0.0
  0
VERTEX
  5
14D
330
14B
100
AcDbEntity
  8
Strichzeichnung
 62
   250
420
  2039073
370
    25
100
AcDbVertex
100
AcDb2dVertex
 10
27.1779072046464
 20
-102.967933146918
 30
0.0
  0
VERTEX
  5
14E
330
14B
100
AcDbEntity
  8
Strichzeichnung
 62
   250
420
  2039073
370
    25
100
AcDbVertex
100
AcDb2dVertex
 10
29.0988545236106
 20
-102.967933146918
 30
0.0
  0
VERTEX
  5
14F
330
14B
100
AcDbEntity
  8
Strichzeichnung
 62
   250
420
  2039073
370
    25
100
AcDbVertex
100
AcDb2dVertex
 10
29.17421385414744
 20
-100.583155369736
 30
0.0
  0
SEQEND
  5
150
330
14B
100
AcDbEntity
  8
Strichzeichnung
 62
   250
420
  2039073
370
    25
  0
POLYLINE
  5
151
330
139
100
AcDbEntity
  8
Strichzeichnung
 62
   250
420
  2039073
370
    25
100
AcDb2dPolyline
 66
     1
 10
0.0
 20
0.0
 30
0.0
  0
VERTEX
  5
152
330
151
100
AcDbEntity
  8
Strichzeichnung
 62
   250
420
  2039073
370
    25
100
AcDbVertex
100
AcDb2dVertex
 10
64.19896105650223
 20
-100.583155369736
 30
0.0
  0
VERTEX
  5
153
330
151
100
AcDbEntity
  8
Strichzeichnung
 62
   250
420
  2039073
370
    25
100
AcDbVertex
100
AcDb2dVertex
 10
64.28807272314623
 20
-102.9678978691402
 30
0.0
  0
VERTEX
  5
154
330
151
100
AcDbEntity
  8
Strichzeichnung
 62
   250
420
  2039073
370
    25
100
AcDbVertex
100
AcDb2dVertex
 10
66.20901734701489
 20
-102.9678978691402
 30
0.0
  0
VERTEX
  5
155
330
151
100
AcDbEntity
  8
Strichzeichnung
 62
   250
420
  2039073
370
    25
100
AcDbVertex
100
AcDb2dVertex
 10
66.28458234508739
 20
-100.583155369736
 30
0.0
  0
SEQEND
  5
156
330
151
100
AcDbEntity
  8
Strichzeichnung
 62
   250
420
  2039073
370
    25
  0
POLYLINE
  5
157
330
139
100
AcDbEntity
  8
Strichzeichnung
 62
   250
420
  2039073
370
    25
100
AcDb2dPolyline
 66
     1
 10
0.0
 20
0.0
 30
0.0
  0
VERTEX
  5
158
330
157
100
AcDbEntity
  8
Strichzeichnung
 62
   250
420
  2039073
370
    25
100
AcDbVertex
100
AcDb2dVertex
 10
29.38512487076109
 20
-100.583155369736
 30
0.0
  0
VERTEX
  5
159
330
157
100
AcDbEntity
  8
Strichzeichnung
 62
   250
420
  2039073
370
    25
100
AcDbVertex
100
AcDb2dVertex
 10
29.38512416520561
 20
-96.50892481519938
 30
0.0
  0
VERTEX
  5
15A
330
157
100
AcDbEntity
  8
Strichzeichnung
 62
   250
420
  2039073
370
    25
100
AcDbVertex
100
AcDb2dVertex
 10
63.99706633433055
 20
-96.50892481519938
 30
0.0
  0
VERTEX
  5
15B
330
157
100
AcDbEntity
  8
Strichzeichnung
 62
   250
420
  2039073
370
    25
100
AcDbVertex
100
AcDb2dVertex
 10
63.99706633433055
 20
-100.583155369736
 30
0.0
  0
VERTEX
  5
15C
330
157
100
AcDbEntity
  8
Strichzeichnung
 62
   250
420
  2039073
370
    25
100
AcDbVertex
100
AcDb2dVertex
 10
29.38512487076109
 20
-100.583155369736
 30
0.0
  0
SEQEND
  5
15D
330
157
100
AcDbEntity
  8
Strichzeichnung
 62
   250
420
  2039073
370
    25
  0
SPLINE
  5
15E
330
139
100
AcDbEntity
  8
Strichzeichnung
 62
   250
420
  2039073
370
    25
100
AcDbSpline
210
0.0
220
0.0
230
1.0
 70
    11
 71
     3
 72
    29
 73
    25
 74
     0
 42
0.0000000001
 43
0.0000000001
 12
1.0
 22
0.0
 32
0.0
 13
1.0
 23
0.0
 33
0.0
 40
0.0
 40
0.0
 40
0.0
 40
0.0
 40
1.0
 40
1.0
 40
1.0
 40
2.0
 40
2.0
 40
2.0
 40
3.0
 40
3.0
 40
3.0
 40
4.0
 40
4.0
 40
4.0
 40
5.0
 40
5.0
 40
5.0
 40
6.0
 40
6.0
 40
6.0
 40
7.0
 40
7.0
 40
7.0
 40
8.0
 40
8.0
 40
8.0
 40
8.0
 10
29.38512381242804
 20
-96.08132287086192
 30
0.0
 10
29.38512381242804
 20
-96.08132287086192
 30
0.0
 10
29.88491220396953
 20
-96.50892481519938
 30
0.0
 10
30.97833634258511
 20
-96.50892481519938
 30
0.0
 10
32.07198625897847
 20
-96.50892481519938
 30
0.0
 10
44.65320245027743
 20
-96.50892481519938
 30
0.0
 10
45.20939189458295
 20
-96.50892481519938
 30
0.0
 10
45.76512272777718
 20
-96.50892481519938
 30
0.0
 10
46.65472244977708
 20
-96.08132287086192
 30
0.0
 10
46.65472244977708
 20
-96.08132287086192
 30
0.0
 10
46.65472244977708
 20
-96.08132287086192
 30
0.0
 10
46.65472244977708
 20
-92.75416981613841
 30
0.0
 10
46.65472244977708
 20
-92.75416981613841
 30
0.0
 10
46.65472244977708
 20
-92.75416981613841
 30
0.0
 10
46.13571578323987
 20
-92.27082898292524
 30
0.0
 10
45.06104883906409
 20
-92.19656926072186
 30
0.0
 10
43.98609967266657
 20
-92.12241537185167
 30
0.0
 10
31.738561870173
 20
-92.10364759407848
 30
0.0
 10
30.9415980648167
 20
-92.19656926072186
 30
0.0
 10
30.14416506501605
 20
-92.28949092736555
 30
0.0
 10
29.38512310687224
 20
-92.58698842729102
 30
0.0
 10
29.38512310687224
 20
-92.58698842729102
 30
0.0
 10
29.38512310687224
 20
-92.58698842729102
 30
0.0
 10
29.38512381242804
 20
-96.08132287086192
 30
0.0
 10
29.38512381242804
 20
-96.08132287086192
 30
0.0
  0
SPLINE
  5
15F
330
139
100
AcDbEntity
  8
Strichzeichnung
 62
   250
420
  2039073
370
    25
100
AcDbSpline
210
0.0
220
0.0
230
1.0
 70
    11
 71
     3
 72
    29
 73
    25
 74
     0
 42
0.0000000001
 43
0.0000000001
 12
1.0
 22
0.0
 32
0.0
 13
1.0
 23
0.0
 33
0.0
 40
0.0
 40
0.0
 40
0.0
 40
0.0
 40
1.0
 40
1.0
 40
1.0
 40
2.0
 40
2.0
 40
2.0
 40
3.0
 40
3.0
 40
3.0
 40
4.0
 40
4.0
 40
4.0
 40
5.0
 40
5.0
 40
5.0
 40
6.0
 40
6.0
 40
6.0
 40
7.0
 40
7.0
 40
7.0
 40
8.0
 40
8.0
 40
8.0
 40
8.0
 10
46.65472244977708
 20
-96.08132287086192
 30
0.0
 10
46.65472244977708
 20
-96.08132287086192
 30
0.0
 10
47.15661939409576
 20
-96.50892481519938
 30
0.0
 10
48.25407578271049
 20
-96.50892481519938
 30
0.0
 10
49.35248467132499
 20
-96.50892481519938
 30
0.0
 10
61.98676216816631
 20
-96.50892481519938
 30
0.0
 10
62.54485661247135
 20
-96.50892481519938
 30
0.0
 10
63.10340966788735
 20
-96.50892481519938
 30
0.0
 10
63.99657244544175
 20
-96.08128759308441
 30
0.0
 10
63.99657244544175
 20
-96.08128759308441
 30
0.0
 10
63.99657244544175
 20
-96.08128759308441
 30
0.0
 10
63.99657244544175
 20
-92.75416981613841
 30
0.0
 10
63.99657244544175
 20
-92.75416981613841
 30
0.0
 10
63.99657244544175
 20
-92.75416981613841
 30
0.0
 10
63.47569605668316
 20
-92.27082898292524
 30
0.0
 10
62.39626661250858
 20
-92.19656926072186
 30
0.0
 10
61.31683716833399
 20
-92.12241537185167
 30
0.0
 10
49.01762800474203
 20
-92.10361231630064
 30
0.0
 10
48.21735161605316
 20
-92.19656926072186
 30
0.0
 10
47.41707522736397
 20
-92.28949092736555
 30
0.0
 10
46.65472244977708
 20
-92.58698842729102
 30
0.0
 10
46.65472244977708
 20
-92.58698842729102
 30
0.0
 10
46.65472244977708
 20
-92.58698842729102
 30
0.0
 10
46.65472244977708
 20
-96.08132287086192
 30
0.0
 10
46.65472244977708
 20
-96.08132287086192
 30
0.0
  0
SPLINE
  5
160
330
139
100
AcDbEntity
  8
Strichzeichnung
 62
   250
420
  2039073
370
    25
100
AcDbSpline
210
0.0
220
0.0
230
1.0
 70
     8
 71
     3
 72
    29
 73
    25
 74
     0
 42
0.0000000001
 43
0.0000000001
 12
1.0
 22
0.0
 32
0.0
 13
1.0
 23
0.0
 33
0.0
 40
0.0
 40
0.0
 40
0.0
 40
0.0
 40
1.0
 40
1.0
 40
1.0
 40
2.0
 40
2.0
 40
2.0
 40
3.0
 40
3.0
 40
3.0
 40
4.0
 40
4.0
 40
4.0
 40
5.0
 40
5.0
 40
5.0
 40
6.0
 40
6.0
 40
6.0
 40
7.0
 40
7.0
 40
7.0
 40
8.0
 40
8.0
 40
8.0
 40
8.0
 10
26.89471131582814
 20
-89.77220981688389
 30
0.0
 10
26.89471131582814
 20
-89.77220981688389
 30
0.0
 10
25.61597301059246
 20
-89.74292926133546
 30
0.0
 10
25.50625912173079
 20
-88.776635650466
 30
0.0
 10
25.3965099550916
 20
-87.8102009284855
 30
0.0
 10
25.21193662180453
 20
-86.94716537314545
 30
0.0
 10
25.76099995500074
 20
-86.64980898433103
 30
0.0
 10
26.3100844548634
 20
-86.35259370662733
 30
0.0
 10
28.4130351210043
 20
-86.47179731770879
 30
0.0
 10
29.03486733751537
 20
-86.58338092879183
 30
0.0
 10
29.65646178180464
 20
-86.69496453987519
 30
0.0
 10
30.62902284267251
 20
-87.10390453977297
 30
0.0
 10
31.10440148144255
 20
-87.51284453967077
 30
0.0
 10
31.58002706465684
 20
-87.9216434284575
 30
0.0
 10
32.97015495319824
 20
-89.50145287250685
 30
0.0
 10
33.22655384202316
 20
-90.41239565005682
 30
0.0
 10
33.66565634191345
 20
-91.97386064966642
 30
0.0
 10
33.00899578652182
 20
-92.1053409274116
 30
0.0
 10
32.60470892551196
 20
-92.13373953851563
 30
0.0
 10
32.20042912005748
 20
-92.1618912051751
 30
0.0
 10
31.2416038147417
 20
-92.13373953851563
 30
0.0
 10
30.40934459272723
 20
-92.13373953851563
 30
0.0
 10
29.78727742621626
 20
-92.13373953851563
 30
0.0
 10
29.37919961520705
 20
-92.23389314960183
 30
0.0
 10
29.38512310687224
 20
-91.3045353720561
 30
0.0
  0
SPLINE
  5
161
330
139
100
AcDbEntity
  8
Strichzeichnung
 62
   250
420
  2039073
370
    25
100
AcDbSpline
210
0.0
220
0.0
230
1.0
 70
     8
 71
     3
 72
    20
 73
    16
 74
     0
 42
0.0000000001
 43
0.0000000001
 12
1.0
 22
0.0
 32
0.0
 13
1.0
 23
0.0
 33
0.0
 40
0.0
 40
0.0
 40
0.0
 40
0.0
 40
1.0
 40
1.0
 40
1.0
 40
2.0
 40
2.0
 40
2.0
 40
3.0
 40
3.0
 40
3.0
 40
4.0
 40
4.0
 40
4.0
 40
5.0
 40
5.0
 40
5.0
 40
5.0
 10
29.03486733751537
 20
-86.58338092879183
 30
0.0
 10
29.03486733751537
 20
-86.58338092879183
 30
0.0
 10
28.99600180974734
 20
-85.70962092901047
 30
0.0
 10
29.0348669847378
 20
-84.98480370696963
 30
0.0
 10
29.07373215972793
 20
-84.25998648492848
 30
0.0
 10
29.51285370961825
 20
-83.86946148502611
 30
0.0
 10
30.00695214838352
 20
-83.86946148502611
 30
0.0
 10
30.50081987048236
 20
-83.86946148502611
 30
0.0
 10
45.21006217236063
 20
-83.86946148502611
 30
0.0
 10
45.75894911666764
 20
-83.86946148502611
 30
0.0
 10
46.3077655054196
 20
-83.86946148502611
 30
0.0
 10
46.67246717199482
 20
-84.1300937071832
 30
0.0
 10
46.65472244977708
 20
-85.22652704024217
 30
0.0
 10
46.63718939422606
 20
-86.32320731774603
 30
0.0
 10
46.65472244977708
 20
-92.58698842729102
 30
0.0
 10
46.65472244977708
 20
-92.58698842729102
 30
0.0
  0
SPLINE
  5
162
330
139
100
AcDbEntity
  8
Strichzeichnung
 62
   250
420
  2039073
370
    25
100
AcDbSpline
210
0.0
220
0.0
230
1.0
 70
     8
 71
     3
 72
    20
 73
    16
 74
     0
 42
0.0000000001
 43
0.0000000001
 12
1.0
 22
0.0
 32
0.0
 13
1.0
 23
0.0
 33
0.0
 40
0.0
 40
0.0
 40
0.0
 40
0.0
 40
1.0
 40
1.0
 40
1.0
 40
2.0
 40
2.0
 40
2.0
 40
3.0
 40
3.0
 40
3.0
 40
4.0
 40
4.0
 40
4.0
 40
5.0
 40
5.0
 40
5.0
 40
5.0
 10
64.25985050093173
 20
-86.58334565101431
 30
0.0
 10
64.25985050093173
 20
-86.58334565101431
 30
0.0
 10
64.29893827869955
 20
-85.70958565123263
 30
0.0
 10
64.25985050093173
 20
-84.98480370696963
 30
0.0
 10
64.22051577871903
 20
-84.25998648492848
 30
0.0
 10
63.7818718899397
 20
-83.86946148502611
 30
0.0
 10
63.28777133450769
 20
-83.86946148502611
 30
0.0
 10
62.79391772352024
 20
-83.86946148502611
 30
0.0
 10
48.08463661608644
 20
-83.86946148502611
 30
0.0
 10
47.53578494955696
 20
-83.86946148502611
 30
0.0
 10
46.98696856080532
 20
-83.86946148502611
 30
0.0
 10
46.62272550534073
 20
-84.1300937071832
 30
0.0
 10
46.64001161644751
 20
-85.22652704024217
 30
0.0
 10
46.65779161644309
 20
-86.32320731774603
 30
0.0
 10
46.64001161644751
 20
-92.58698842729102
 30
0.0
 10
46.64001161644751
 20
-92.58698842729102
 30
0.0
  0
SPLINE
  5
163
330
139
100
AcDbEntity
  8
Strichzeichnung
 62
   250
420
  2039073
370
    25
100
AcDbSpline
210
0.0
220
0.0
230
1.0
 70
     8
 71
     3
 72
    29
 73
    25
 74
     0
 42
0.0000000001
 43
0.0000000001
 12
1.0
 22
0.0
 32
0.0
 13
1.0
 23
0.0
 33
0.0
 40
0.0
 40
0.0
 40
0.0
 40
0.0
 40
1.0
 40
1.0
 40
1.0
 40
2.0
 40
2.0
 40
2.0
 40
3.0
 40
3.0
 40
3.0
 40
4.0
 40
4.0
 40
4.0
 40
5.0
 40
5.0
 40
5.0
 40
6.0
 40
6.0
 40
6.0
 40
7.0
 40
7.0
 40
7.0
 40
8.0
 40
8.0
 40
8.0
 40
8.0
 10
66.4812912289575
 20
-89.77217453910573
 30
0.0
 10
66.4812912289575
 20
-89.77217453910573
 30
0.0
 10
67.76004008522278
 20
-89.74289398355762
 30
0.0
 10
67.86975397131265
 20
-88.77660037268816
 30
0.0
 10
67.97971480184064
 20
-87.81016565070735
 30
0.0
 10
68.16386479714258
 20
-86.94716537314545
 30
0.0
 10
67.61501314447828
 20
-86.64980898433103
 30
0.0
 10
67.06616149181399
 20
-86.35259370662733
 30
0.0
 10
64.96321793435344
 20
-86.47176203993095
 30
0.0
 10
64.34116577868875
 20
-86.58334565101431
 30
0.0
 10
63.71932438995555
 20
-86.69492926209735
 30
0.0
 10
62.74720994575367
 20
-87.10386926199513
 30
0.0
 10
62.27138327920637
 20
-87.51280926189293
 30
0.0
 10
61.79622689043611
 20
-87.9216434284575
 30
0.0
 10
60.40564744633945
 20
-89.501417594729
 30
0.0
 10
60.14946022418125
 20
-90.41236037227931
 30
0.0
 10
59.71081633540192
 20
-91.97386064966642
 30
0.0
 10
60.36701827968227
 20
-92.10530564963376
 30
0.0
 10
60.77130161291475
 20
-92.13370426073779
 30
0.0
 10
61.17558494614725
 20
-92.1618912051751
 30
0.0
 10
62.13439966812932
 20
-92.13370426073779
 30
0.0
 10
62.96667300125486
 20
-92.13370426073779
 30
0.0
 10
63.5887613344326
 20
-92.13370426073779
 30
0.0
 10
63.99706633433055
 20
-92.23385787182367
 30
0.0
 10
63.99089272322101
 20
-91.3045353720561
 30
0.0
  0
SPLINE
  5
164
330
139
100
AcDbEntity
  8
Strichzeichnung
 62
   250
420
  2039073
370
    25
100
AcDbSpline
210
0.0
220
0.0
230
1.0
 70
     8
 71
     3
 72
     8
 73
     4
 74
     0
 42
0.0000000001
 43
0.0000000001
 12
1.0
 22
0.0
 32
0.0
 13
1.0
 23
0.0
 33
0.0
 40
0.0
 40
0.0
 40
0.0
 40
0.0
 40
1.0
 40
1.0
 40
1.0
 40
1.0
 10
46.65376994977732
 20
-85.22652704024217
 30
0.0
 10
46.65352300533308
 20
-86.31332953997062
 30
0.0
 10
46.65542800533261
 20
-92.52137176064086
 30
0.0
 10
46.65542800533261
 20
-92.52137176064086
 30
0.0
  0
ENDBLK
  5
13C
330
139
100
AcDbEntity
  8
0
100
AcDbBlockEnd
  0
BLOCK
  5
167
330
165
100
AcDbEntity
  8
0
100
AcDbBlockBegin
  2
block 6
 70
     0
 10
0.0
 20
0.0
 30
0.0
  3
block 6
  1

  0
POLYLINE
  5
169
330
165
100
AcDbEntity
  8
Strichzeichnung
 62
   250
420
  2039073
370
    25
100
AcDb2dPolyline
 66
     1
 10
0.0
 20
0.0
 30
0.0
  0
VERTEX
  5
16A
330
169
100
AcDbEntity
  8
Strichzeichnung
 62
   250
420
  2039073
370
    25
100
AcDbVertex
100
AcDb2dVertex
 10
26.94185301026089
 20
-25.41679427741694
 30
0.0
  0
VERTEX
  5
16B
330
169
100
AcDbEntity
  8
Strichzeichnung
 62
   250
420
  2039073
370
    25
100
AcDbVertex
100
AcDb2dVertex
 10
26.94185653803858
 20
-36.61526621906177
 30
0.0
  0
VERTEX
  5
16C
330
169
100
AcDbEntity
  8
Strichzeichnung
 62
   250
420
  2039073
370
    25
100
AcDbVertex
100
AcDb2dVertex
 10
29.61259033737091
 20
-36.61526621906177
 30
0.0
  0
VERTEX
  5
16D
330
169
100
AcDbEntity
  8
Strichzeichnung
 62
   250
420
  2039073
370
    25
100
AcDbVertex
100
AcDb2dVertex
 10
29.6125878679266
 20
-25.41679427741694
 30
0.0
  0
VERTEX
  5
16E
330
169
100
AcDbEntity
  8
Strichzeichnung
 62
   250
420
  2039073
370
    25
100
AcDbVertex
100
AcDb2dVertex
 10
26.94185301026089
 20
-25.41679427741694
 30
0.0
  0
SEQEND
  5
16F
330
169
100
AcDbEntity
  8
Strichzeichnung
 62
   250
420
  2039073
370
    25
  0
POLYLINE
  5
170
330
165
100
AcDbEntity
  8
Strichzeichnung
 62
   250
420
  2039073
370
    25
100
AcDb2dPolyline
 66
     1
 10
0.0
 20
0.0
 30
0.0
  0
VERTEX
  5
171
330
170
100
AcDbEntity
  8
Strichzeichnung
 62
   250
420
  2039073
370
    25
100
AcDbVertex
100
AcDb2dVertex
 10
44.83869300578674
 20
-25.4167589996391
 30
0.0
  0
VERTEX
  5
172
330
170
100
AcDbEntity
  8
Strichzeichnung
 62
   250
420
  2039073
370
    25
100
AcDbVertex
100
AcDb2dVertex
 10
44.83869300578674
 20
-36.61526621906177
 30
0.0
  0
VERTEX
  5
173
330
170
100
AcDbEntity
  8
Strichzeichnung
 62
   250
420
  2039073
370
    25
100
AcDbVertex
100
AcDb2dVertex
 10
47.5094324495635
 20
-36.61526621906177
 30
0.0
  0
VERTEX
  5
174
330
170
100
AcDbEntity
  8
Strichzeichnung
 62
   250
420
  2039073
370
    25
100
AcDbVertex
100
AcDb2dVertex
 10
47.5094324495635
 20
-25.4167589996391
 30
0.0
  0
VERTEX
  5
175
330
170
100
AcDbEntity
  8
Strichzeichnung
 62
   250
420
  2039073
370
    25
100
AcDbVertex
100
AcDb2dVertex
 10
44.83869300578674
 20
-25.4167589996391
 30
0.0
  0
SEQEND
  5
176
330
170
100
AcDbEntity
  8
Strichzeichnung
 62
   250
420
  2039073
370
    25
  0
POLYLINE
  5
177
330
165
100
AcDbEntity
  8
Strichzeichnung
 62
   250
420
  2039073
370
    25
100
AcDb2dPolyline
 66
     1
 10
0.0
 20
0.0
 30
0.0
  0
VERTEX
  5
178
330
177
100
AcDbEntity
  8
Strichzeichnung
 62
   250
420
  2039073
370
    25
100
AcDbVertex
100
AcDb2dVertex
 10
27.14975201020893
 20
-36.61526621906177
 30
0.0
  0
VERTEX
  5
179
330
177
100
AcDbEntity
  8
Strichzeichnung
 62
   250
420
  2039073
370
    25
100
AcDbVertex
100
AcDb2dVertex
 10
27.24557703796282
 20
-39.08555732955541
 30
0.0
  0
VERTEX
  5
17A
330
177
100
AcDbEntity
  8
Strichzeichnung
 62
   250
420
  2039073
370
    25
100
AcDbVertex
100
AcDb2dVertex
 10
29.30581760411427
 20
-39.08555732955541
 30
0.0
  0
VERTEX
  5
17B
330
177
100
AcDbEntity
  8
Strichzeichnung
 62
   250
420
  2039073
370
    25
100
AcDbVertex
100
AcDb2dVertex
 10
29.38638640409413
 20
-36.61526621906177
 30
0.0
  0
SEQEND
  5
17C
330
177
100
AcDbEntity
  8
Strichzeichnung
 62
   250
420
  2039073
370
    25
  0
POLYLINE
  5
17D
330
165
100
AcDbEntity
  8
Strichzeichnung
 62
   250
420
  2039073
370
    25
100
AcDb2dPolyline
 66
     1
 10
0.0
 20
0.0
 30
0.0
  0
VERTEX
  5
17E
330
17D
100
AcDbEntity
  8
Strichzeichnung
 62
   250
420
  2039073
370
    25
100
AcDbVertex
100
AcDb2dVertex
 10
45.05600411684352
 20
-36.61526621906177
 30
0.0
  0
VERTEX
  5
17F
330
17D
100
AcDbEntity
  8
Strichzeichnung
 62
   250
420
  2039073
370
    25
100
AcDbVertex
100
AcDb2dVertex
 10
45.15132467237522
 20
-39.08555732955541
 30
0.0
  0
VERTEX
  5
180
330
17D
100
AcDbEntity
  8
Strichzeichnung
 62
   250
420
  2039073
370
    25
100
AcDbVertex
100
AcDb2dVertex
 10
47.21154689408244
 20
-39.08555732955541
 30
0.0
  0
VERTEX
  5
181
330
17D
100
AcDbEntity
  8
Strichzeichnung
 62
   250
420
  2039073
370
    25
100
AcDbVertex
100
AcDb2dVertex
 10
47.29261522739553
 20
-36.61526621906177
 30
0.0
  0
SEQEND
  5
182
330
17D
100
AcDbEntity
  8
Strichzeichnung
 62
   250
420
  2039073
370
    25
  0
POLYLINE
  5
183
330
165
100
AcDbEntity
  8
Strichzeichnung
 62
   250
420
  2039073
370
    25
100
AcDb2dPolyline
 66
     1
 10
0.0
 20
0.0
 30
0.0
  0
VERTEX
  5
184
330
183
100
AcDbEntity
  8
Strichzeichnung
 62
   250
420
  2039073
370
    25
100
AcDbVertex
100
AcDb2dVertex
 10
29.61259033737091
 20
-36.61526621906177
 30
0.0
  0
VERTEX
  5
185
330
183
100
AcDbEntity
  8
Strichzeichnung
 62
   250
420
  2039073
370
    25
100
AcDbVertex
100
AcDb2dVertex
 10
29.61258927903754
 20
-32.3950209423389
 30
0.0
  0
VERTEX
  5
186
330
183
100
AcDbEntity
  8
Strichzeichnung
 62
   250
420
  2039073
370
    25
100
AcDbVertex
100
AcDb2dVertex
 10
44.83869300578674
 20
-32.3950209423389
 30
0.0
  0
VERTEX
  5
187
330
183
100
AcDbEntity
  8
Strichzeichnung
 62
   250
420
  2039073
370
    25
100
AcDbVertex
100
AcDb2dVertex
 10
44.83869300578674
 20
-36.61526621906177
 30
0.0
  0
VERTEX
  5
188
330
183
100
AcDbEntity
  8
Strichzeichnung
 62
   250
420
  2039073
370
    25
100
AcDbVertex
100
AcDb2dVertex
 10
29.61259033737091
 20
-36.61526621906177
 30
0.0
  0
SEQEND
  5
189
330
183
100
AcDbEntity
  8
Strichzeichnung
 62
   250
420
  2039073
370
    25
  0
SPLINE
  5
18A
330
165
100
AcDbEntity
  8
Strichzeichnung
 62
   250
420
  2039073
370
    25
100
AcDbSpline
210
0.0
220
0.0
230
1.0
 70
    11
 71
     3
 72
    29
 73
    25
 74
     0
 42
0.0000000001
 43
0.0000000001
 12
1.0
 22
0.0
 32
0.0
 13
1.0
 23
0.0
 33
0.0
 40
0.0
 40
0.0
 40
0.0
 40
0.0
 40
1.0
 40
1.0
 40
1.0
 40
2.0
 40
2.0
 40
2.0
 40
3.0
 40
3.0
 40
3.0
 40
4.0
 40
4.0
 40
4.0
 40
5.0
 40
5.0
 40
5.0
 40
6.0
 40
6.0
 40
6.0
 40
7.0
 40
7.0
 40
7.0
 40
8.0
 40
8.0
 40
8.0
 40
8.0
 10
29.61258927903754
 20
-31.95207316467203
 30
0.0
 10
29.61258927903754
 20
-31.95207316467203
 30
0.0
 10
30.15903817612343
 20
-32.3950209423389
 30
0.0
 10
31.35385770360243
 20
-32.3950209423389
 30
0.0
 10
32.54842323108148
 20
-32.3950209423389
 30
0.0
 10
42.65214106188907
 20
-32.3950209423389
 30
0.0
 10
43.25958911729261
 20
-32.3950209423389
 30
0.0
 10
43.8672841171407
 20
-32.3950209423389
 30
0.0
 10
44.83869300578674
 20
-31.95207316467203
 30
0.0
 10
44.83869300578674
 20
-31.95207316467203
 30
0.0
 10
44.83869300578674
 20
-31.95207316467203
 30
0.0
 10
44.83869300578674
 20
-28.50554010997817
 30
0.0
 10
44.83869300578674
 20
-28.50554010997817
 30
0.0
 10
44.83869300578674
 20
-28.50554010997817
 30
0.0
 10
44.27192022815063
 20
-28.00498372121421
 30
0.0
 10
43.09794633955523
 20
-27.92818399901146
 30
0.0
 10
41.92344328429318
 20
-27.85113733236382
 30
0.0
 10
32.18394734228372
 20
-27.83180511014647
 30
0.0
 10
31.31344348139031
 20
-27.92818399901146
 30
0.0
 10
30.44268209271895
 20
-28.02445705454292
 30
0.0
 10
29.61258857348207
 20
-28.33243205446579
 30
0.0
 10
29.61258857348207
 20
-28.33243205446579
 30
0.0
 10
29.61258857348207
 20
-28.33243205446579
 30
0.0
 10
29.61258927903754
 20
-31.95207316467203
 30
0.0
 10
29.61258927903754
 20
-31.95207316467203
 30
0.0
  0
SPLINE
  5
18B
330
165
100
AcDbEntity
  8
Strichzeichnung
 62
   250
420
  2039073
370
    25
100
AcDbSpline
210
0.0
220
0.0
230
1.0
 70
     8
 71
     3
 72
    26
 73
    22
 74
     0
 42
0.0000000001
 43
0.0000000001
 12
1.0
 22
0.0
 32
0.0
 13
1.0
 23
0.0
 33
0.0
 40
0.0
 40
0.0
 40
0.0
 40
0.0
 40
1.0
 40
1.0
 40
1.0
 40
2.0
 40
2.0
 40
2.0
 40
3.0
 40
3.0
 40
3.0
 40
4.0
 40
4.0
 40
4.0
 40
5.0
 40
5.0
 40
5.0
 40
6.0
 40
6.0
 40
6.0
 40
7.0
 40
7.0
 40
7.0
 40
7.0
 10
30.81401245373732
 20
-28.00498372121421
 30
0.0
 10
30.81401245373732
 20
-28.00498372121421
 30
0.0
 10
29.61258857348207
 20
-28.25552649892951
 30
0.0
 10
29.61258822070449
 20
-27.06190288811684
 30
0.0
 10
29.61258822070449
 20
-25.86817344397064
 30
0.0
 10
29.61334951514851
 20
-21.44003622285542
 30
0.0
 10
29.61258716237112
 20
-20.93909177853651
 30
0.0
 10
29.61233280959329
 20
-20.4385706675504
 30
0.0
 10
29.98518928727801
 20
-20.01484927876736
 30
0.0
 10
30.77029623152602
 20
-19.99551705655001
 30
0.0
 10
31.55514917577442
 20
-19.97657288988794
 30
0.0
 10
42.79801467296359
 20
-19.99548177877217
 30
0.0
 10
43.58287467276736
 20
-19.99548177877217
 30
0.0
 10
44.36773467257113
 20
-19.99548177877217
 30
0.0
 10
44.83869300578674
 20
-20.26549788981586
 30
0.0
 10
44.83869300578674
 20
-21.28562538956087
 30
0.0
 10
44.83869300578674
 20
-22.30617622263901
 30
0.0
 10
44.83869300578674
 20
-26.27280955498057
 30
0.0
 10
44.83869300578674
 20
-26.94654455481226
 30
0.0
 10
44.83869300578674
 20
-27.62017372131044
 30
0.0
 10
44.48923133920741
 20
-28.0798078878624
 30
0.0
 10
43.70130217273763
 20
-28.01147483232368
 30
0.0
  0
ENDBLK
  5
168
330
165
100
AcDbEntity
  8
0
100
AcDbBlockEnd
  0
BLOCK
  5
18E
330
18C
100
AcDbEntity
  8
0
100
AcDbBlockBegin
  2
block 7
 70
     0
 10
0.0
 20
0.0
 30
0.0
  3
block 7
  1

  0
SPLINE
  5
190
330
18C
100
AcDbEntity
  8
Strichzeichnung
 62
   250
420
  2039073
370
    25
100
AcDbSpline
210
0.0
220
0.0
230
1.0
 70
     8
 71
     3
 72
    14
 73
    10
 74
     0
 42
0.0000000001
 43
0.0000000001
 12
1.0
 22
0.0
 32
0.0
 13
1.0
 23
0.0
 33
0.0
 40
0.0
 40
0.0
 40
0.0
 40
0.0
 40
1.0
 40
1.0
 40
1.0
 40
2.0
 40
2.0
 40
2.0
 40
3.0
 40
3.0
 40
3.0
 40
3.0
 10
122.8517774918317
 20
-86.12498148446171
 30
0.0
 10
122.682267773934
 20
-85.41857926241663
 30
0.0
 10
122.4521508353603
 20
-84.66218842927223
 30
0.0
 10
122.1410737078762
 20
-83.87623481835766
 30
0.0
 10
121.856661961664
 20
-83.15741481853749
 30
0.0
 10
118.9694228686566
 20
-83.69963426284582
 30
0.0
 10
118.7276642637132
 20
-83.93176204056601
 30
0.0
 10
118.4863289920924
 20
-84.16413676273012
 30
0.0
 10
118.6523462100792
 20
-89.32001926144115
 30
0.0
 10
118.6523462100792
 20
-89.52597092805645
 30
0.0
  0
POLYLINE
  5
191
330
18C
100
AcDbEntity
  8
Strichzeichnung
 62
   250
420
  2039073
370
    25
100
AcDb2dPolyline
 66
     1
 10
0.0
 20
0.0
 30
0.0
  0
VERTEX
  5
192
330
191
100
AcDbEntity
  8
Strichzeichnung
 62
   250
420
  2039073
370
    25
100
AcDbVertex
100
AcDb2dVertex
 10
137.3595162883744
 20
-89.64697370580393
 30
0.0
  0
VERTEX
  5
193
330
191
100
AcDbEntity
  8
Strichzeichnung
 62
   250
420
  2039073
370
    25
100
AcDbVertex
100
AcDb2dVertex
 10
137.3595162883744
 20
-100.3840123142308
 30
0.0
  0
VERTEX
  5
194
330
191
100
AcDbEntity
  8
Strichzeichnung
 62
   250
420
  2039073
370
    25
100
AcDbVertex
100
AcDb2dVertex
 10
116.7476284808948
 20
-100.3840123142308
 30
0.0
  0
VERTEX
  5
195
330
191
100
AcDbEntity
  8
Strichzeichnung
 62
   250
420
  2039073
370
    25
100
AcDbVertex
100
AcDb2dVertex
 10
116.7476284808948
 20
-89.64697370580393
 30
0.0
  0
VERTEX
  5
196
330
191
100
AcDbEntity
  8
Strichzeichnung
 62
   250
420
  2039073
370
    25
100
AcDbVertex
100
AcDb2dVertex
 10
137.3595162883744
 20
-89.64697370580393
 30
0.0
  0
SEQEND
  5
197
330
191
100
AcDbEntity
  8
Strichzeichnung
 62
   250
420
  2039073
370
    25
  0
POLYLINE
  5
198
330
18C
100
AcDbEntity
  8
Strichzeichnung
 62
   250
420
  2039073
370
    25
100
AcDb2dPolyline
 66
     1
 10
0.0
 20
0.0
 30
0.0
  0
VERTEX
  5
199
330
198
100
AcDbEntity
  8
Strichzeichnung
 62
   250
420
  2039073
370
    25
100
AcDbVertex
100
AcDb2dVertex
 10
137.176953793032
 20
-100.3840123142308
 30
0.0
  0
VERTEX
  5
19A
330
198
100
AcDbEntity
  8
Strichzeichnung
 62
   250
420
  2039073
370
    25
100
AcDbVertex
100
AcDb2dVertex
 10
137.092957406286
 20
-102.7524564803051
 30
0.0
  0
VERTEX
  5
19B
330
198
100
AcDbEntity
  8
Strichzeichnung
 62
   250
420
  2039073
370
    25
100
AcDbVertex
100
AcDb2dVertex
 10
135.2814082858359
 20
-102.7524564803051
 30
0.0
  0
VERTEX
  5
19C
330
198
100
AcDbEntity
  8
Strichzeichnung
 62
   250
420
  2039073
370
    25
100
AcDbVertex
100
AcDb2dVertex
 10
135.210358843204
 20
-100.3840123142308
 30
0.0
  0
SEQEND
  5
19D
330
198
100
AcDbEntity
  8
Strichzeichnung
 62
   250
420
  2039073
370
    25
  0
POLYLINE
  5
19E
330
18C
100
AcDbEntity
  8
Strichzeichnung
 62
   250
420
  2039073
370
    25
100
AcDb2dPolyline
 66
     1
 10
0.0
 20
0.0
 30
0.0
  0
VERTEX
  5
19F
330
19E
100
AcDbEntity
  8
Strichzeichnung
 62
   250
420
  2039073
370
    25
100
AcDbVertex
100
AcDb2dVertex
 10
118.8717739822589
 20
-100.3840123142308
 30
0.0
  0
VERTEX
  5
1A0
330
19E
100
AcDbEntity
  8
Strichzeichnung
 62
   250
420
  2039073
370
    25
100
AcDbVertex
100
AcDb2dVertex
 10
118.7875306510751
 20
-102.7524917580833
 30
0.0
  0
VERTEX
  5
1A1
330
19E
100
AcDbEntity
  8
Strichzeichnung
 62
   250
420
  2039073
370
    25
100
AcDbVertex
100
AcDb2dVertex
 10
116.9761931972859
 20
-102.7524917580833
 30
0.0
  0
VERTEX
  5
1A2
330
19E
100
AcDbEntity
  8
Strichzeichnung
 62
   250
420
  2039073
370
    25
100
AcDbVertex
100
AcDb2dVertex
 10
116.9049320879928
 20
-100.3840123142308
 30
0.0
  0
SEQEND
  5
1A3
330
19E
100
AcDbEntity
  8
Strichzeichnung
 62
   250
420
  2039073
370
    25
  0
SPLINE
  5
1A4
330
18C
100
AcDbEntity
  8
Strichzeichnung
 62
   250
420
  2039073
370
    25
100
AcDbSpline
210
0.0
220
0.0
230
1.0
 70
     8
 71
     3
 72
    14
 73
    10
 74
     0
 42
0.0000000001
 43
0.0000000001
 12
1.0
 22
0.0
 32
0.0
 13
1.0
 23
0.0
 33
0.0
 40
0.0
 40
0.0
 40
0.0
 40
0.0
 40
1.0
 40
1.0
 40
1.0
 40
2.0
 40
2.0
 40
2.0
 40
3.0
 40
3.0
 40
3.0
 40
3.0
 10
137.3595162883744
 20
-91.5308775942217
 30
0.0
 10
137.7816501664938
 20
-91.5308775942217
 30
0.0
 10
138.0497612707648
 20
-91.8280928719251
 30
0.0
 10
138.0497612707648
 20
-91.8280928719251
 30
0.0
 10
138.0497612707648
 20
-91.8280928719251
 30
0.0
 10
138.0497612707648
 20
-95.61502120431193
 30
0.0
 10
138.0497612707648
 20
-95.61502120431193
 30
0.0
 10
138.0497612707648
 20
-95.61502120431193
 30
0.0
 10
137.8023934992979
 20
-96.06731759308755
 30
0.0
 10
137.3595162883744
 20
-96.09314092641436
 30
0.0
  0
SPLINE
  5
1A5
330
18C
100
AcDbEntity
  8
Strichzeichnung
 62
   250
420
  2039073
370
    25
100
AcDbSpline
210
0.0
220
0.0
230
1.0
 70
     8
 71
     3
 72
    26
 73
    22
 74
     0
 42
0.0000000001
 43
0.0000000001
 12
1.0
 22
0.0
 32
0.0
 13
1.0
 23
0.0
 33
0.0
 40
0.0
 40
0.0
 40
0.0
 40
0.0
 40
1.0
 40
1.0
 40
1.0
 40
2.0
 40
2.0
 40
2.0
 40
3.0
 40
3.0
 40
3.0
 40
4.0
 40
4.0
 40
4.0
 40
5.0
 40
5.0
 40
5.0
 40
6.0
 40
6.0
 40
6.0
 40
7.0
 40
7.0
 40
7.0
 40
7.0
 10
135.9202535473153
 20
-89.64697370580393
 30
0.0
 10
136.3286996480061
 20
-89.64697370580393
 30
0.0
 10
136.532781587244
 20
-89.38524787253603
 30
0.0
 10
136.5667188086004
 20
-89.18356481703107
 30
0.0
 10
136.6006913077337
 20
-88.98174065041474
 30
0.0
 10
136.6877215832911
 20
-87.12595315087857
 30
0.0
 10
136.5856982525606
 20
-86.78961481762889
 30
0.0
 10
136.4836396440533
 20
-86.45317065104632
 30
0.0
 10
136.0564610438404
 20
-86.15546148445446
 30
0.0
 10
135.4099957825553
 20
-86.15546148445446
 30
0.0
 10
134.763109815831
 20
-86.15546148445446
 30
0.0
 10
121.9330736263809
 20
-86.08804565113797
 30
0.0
 10
120.6398961593726
 20
-86.1554967622323
 30
0.0
 10
119.3466481368105
 20
-86.22280676221558
 30
0.0
 10
118.9025009259195
 20
-86.23353120665722
 30
0.0
 10
118.6831789870704
 20
-86.69351815098662
 30
0.0
 10
118.4387745488612
 20
-87.20762120641366
 30
0.0
 10
118.4277348199157
 20
-88.85526981711293
 30
0.0
 10
118.8791470376264
 20
-89.37688703920456
 30
0.0
 10
119.0574431530916
 20
-89.5827681502645
 30
0.0
 10
120.12921506129
 20
-89.64697370580393
 30
0.0
 10
120.3335086671892
 20
-89.64697370580393
 30
0.0
  0
ENDBLK
  5
18F
330
18C
100
AcDbEntity
  8
0
100
AcDbBlockEnd
  0
BLOCK
  5
1A8
330
1A6
100
AcDbEntity
  8
0
100
AcDbBlockBegin
  2
block 8
 70
     0
 10
0.0
 20
0.0
 30
0.0
  3
block 8
  1

  0
POLYLINE
  5
1AA
330
1A6
100
AcDbEntity
  8
Strichzeichnung
 62
   250
420
  2039073
370
    25
100
AcDb2dPolyline
 66
     1
 10
0.0
 20
0.0
 30
0.0
  0
VERTEX
  5
1AB
330
1AA
100
AcDbEntity
  8
Strichzeichnung
 62
   250
420
  2039073
370
    25
100
AcDbVertex
100
AcDb2dVertex
 10
137.3597279550357
 20
-25.72924955511655
 30
0.0
  0
VERTEX
  5
1AC
330
1AA
100
AcDbEntity
  8
Strichzeichnung
 62
   250
420
  2039073
370
    25
100
AcDbVertex
100
AcDb2dVertex
 10
137.3597632328126
 20
-36.45291788576887
 30
0.0
  0
VERTEX
  5
1AD
330
1AA
100
AcDbEntity
  8
Strichzeichnung
 62
   250
420
  2039073
370
    25
100
AcDbVertex
100
AcDb2dVertex
 10
116.7476284808948
 20
-36.45295316354639
 30
0.0
  0
VERTEX
  5
1AE
330
1AA
100
AcDbEntity
  8
Strichzeichnung
 62
   250
420
  2039073
370
    25
100
AcDbVertex
100
AcDb2dVertex
 10
116.7476284808948
 20
-25.72924955511655
 30
0.0
  0
VERTEX
  5
1AF
330
1AA
100
AcDbEntity
  8
Strichzeichnung
 62
   250
420
  2039073
370
    25
100
AcDbVertex
100
AcDb2dVertex
 10
137.3597279550357
 20
-25.72924955511655
 30
0.0
  0
SEQEND
  5
1B0
330
1AA
100
AcDbEntity
  8
Strichzeichnung
 62
   250
420
  2039073
370
    25
  0
POLYLINE
  5
1B1
330
1A6
100
AcDbEntity
  8
Strichzeichnung
 62
   250
420
  2039073
370
    25
100
AcDb2dPolyline
 66
     1
 10
0.0
 20
0.0
 30
0.0
  0
VERTEX
  5
1B2
330
1B1
100
AcDbEntity
  8
Strichzeichnung
 62
   250
420
  2039073
370
    25
100
AcDbVertex
100
AcDb2dVertex
 10
137.176953793032
 20
-36.45291788576887
 30
0.0
  0
VERTEX
  5
1B3
330
1B1
100
AcDbEntity
  8
Strichzeichnung
 62
   250
420
  2039073
370
    25
100
AcDbVertex
100
AcDb2dVertex
 10
137.0931690729473
 20
-38.81839871851102
 30
0.0
  0
VERTEX
  5
1B4
330
1B1
100
AcDbEntity
  8
Strichzeichnung
 62
   250
420
  2039073
370
    25
100
AcDbVertex
100
AcDb2dVertex
 10
135.281655230274
 20
-38.81839871851102
 30
0.0
  0
VERTEX
  5
1B5
330
1B1
100
AcDbEntity
  8
Strichzeichnung
 62
   250
420
  2039073
370
    25
100
AcDbVertex
100
AcDb2dVertex
 10
135.210358843204
 20
-36.45291788576887
 30
0.0
  0
SEQEND
  5
1B6
330
1B1
100
AcDbEntity
  8
Strichzeichnung
 62
   250
420
  2039073
370
    25
  0
POLYLINE
  5
1B7
330
1A6
100
AcDbEntity
  8
Strichzeichnung
 62
   250
420
  2039073
370
    25
100
AcDb2dPolyline
 66
     1
 10
0.0
 20
0.0
 30
0.0
  0
VERTEX
  5
1B8
330
1B7
100
AcDbEntity
  8
Strichzeichnung
 62
   250
420
  2039073
370
    25
100
AcDbVertex
100
AcDb2dVertex
 10
118.8719873660414
 20
-36.45295316354639
 30
0.0
  0
VERTEX
  5
1B9
330
1B7
100
AcDbEntity
  8
Strichzeichnung
 62
   250
420
  2039073
370
    25
100
AcDbVertex
100
AcDb2dVertex
 10
118.7882009288358
 20
-38.81843399628886
 30
0.0
  0
VERTEX
  5
1BA
330
1B7
100
AcDbEntity
  8
Strichzeichnung
 62
   250
420
  2039073
370
    25
100
AcDbVertex
100
AcDb2dVertex
 10
116.976440141724
 20
-38.81843399628886
 30
0.0
  0
VERTEX
  5
1BB
330
1B7
100
AcDbEntity
  8
Strichzeichnung
 62
   250
420
  2039073
370
    25
100
AcDbVertex
100
AcDb2dVertex
 10
116.9053906990922
 20
-36.45295316354639
 30
0.0
  0
SEQEND
  5
1BC
330
1B7
100
AcDbEntity
  8
Strichzeichnung
 62
   250
420
  2039073
370
    25
  0
SPLINE
  5
1BD
330
1A6
100
AcDbEntity
  8
Strichzeichnung
 62
   250
420
  2039073
370
    25
100
AcDbSpline
210
0.0
220
0.0
230
1.0
 70
     8
 71
     3
 72
    14
 73
    10
 74
     0
 42
0.0000000001
 43
0.0000000001
 12
1.0
 22
0.0
 32
0.0
 13
1.0
 23
0.0
 33
0.0
 40
0.0
 40
0.0
 40
0.0
 40
0.0
 40
1.0
 40
1.0
 40
1.0
 40
2.0
 40
2.0
 40
2.0
 40
3.0
 40
3.0
 40
3.0
 40
3.0
 10
137.3597279550357
 20
-27.61075455464632
 30
0.0
 10
137.7820734998163
 20
-27.61075455464632
 30
0.0
 10
138.0497965485417
 20
-27.90761705457195
 30
0.0
 10
138.0497965485417
 20
-27.90761705457195
 30
0.0
 10
138.0497965485417
 20
-27.90761705457195
 30
0.0
 10
138.0497965485417
 20
-31.68992399807101
 30
0.0
 10
138.0497965485417
 20
-31.68992399807101
 30
0.0
 10
138.0497965485417
 20
-31.68992399807101
 30
0.0
 10
137.8028521103973
 20
-32.14151483129143
 30
0.0
 10
137.3597279550357
 20
-32.1674087201736
 30
0.0
  0
SPLINE
  5
1BE
330
1A6
100
AcDbEntity
  8
Strichzeichnung
 62
   250
420
  2039073
370
    25
100
AcDbSpline
210
0.0
220
0.0
230
1.0
 70
     8
 71
     3
 72
    14
 73
    10
 74
     0
 42
0.0000000001
 43
0.0000000001
 12
1.0
 22
0.0
 32
0.0
 13
1.0
 23
0.0
 33
0.0
 40
0.0
 40
0.0
 40
0.0
 40
0.0
 40
1.0
 40
1.0
 40
1.0
 40
2.0
 40
2.0
 40
2.0
 40
3.0
 40
3.0
 40
3.0
 40
3.0
 10
123.1995810940696
 20
-25.72924955511655
 30
0.0
 10
123.168289705979
 20
-24.44714927765939
 30
0.0
 10
122.9537655447853
 20
-22.39140733372891
 30
0.0
 10
122.0387658459067
 20
-20.07951344541807
 30
0.0
 10
121.7543211309412
 20
-19.36069344559758
 30
0.0
 10
118.8670820379342
 20
-19.90291288990656
 30
0.0
 10
118.6253234329908
 20
-20.13504066762611
 30
0.0
 10
118.38398816137
 20
-20.36741538979054
 30
0.0
 10
118.5500053793568
 20
-25.52326261072373
 30
0.0
 10
118.5500053793568
 20
-25.72924955511655
 30
0.0
  0
ENDBLK
  5
1A9
330
1A6
100
AcDbEntity
  8
0
100
AcDbBlockEnd
  0
BLOCK
  5
1C1
330
1BF
100
AcDbEntity
  8
0
100
AcDbBlockBegin
  2
block 9
 70
     0
 10
0.0
 20
0.0
 30
0.0
  3
block 9
  1

  0
POLYLINE
  5
1C3
330
1BF
100
AcDbEntity
  8
Strichzeichnung
 62
   250
420
  2039073
370
    25
100
AcDb2dPolyline
 66
     1
 10
0.0
 20
0.0
 30
0.0
  0
VERTEX
  5
1C4
330
1C3
100
AcDbEntity
  8
Strichzeichnung
 62
   250
420
  2039073
370
    25
100
AcDbVertex
100
AcDb2dVertex
 10
26.74147523253313
 20
-152.8979478566579
 30
0.0
  0
VERTEX
  5
1C5
330
1C3
100
AcDbEntity
  8
Strichzeichnung
 62
   250
420
  2039073
370
    25
100
AcDbVertex
100
AcDb2dVertex
 10
26.74147523253313
 20
-163.6679711872987
 30
0.0
  0
VERTEX
  5
1C6
330
1C3
100
AcDbEntity
  8
Strichzeichnung
 62
   250
420
  2039073
370
    25
100
AcDbVertex
100
AcDb2dVertex
 10
29.32210605966586
 20
-163.6679711872987
 30
0.0
  0
VERTEX
  5
1C7
330
1C3
100
AcDbEntity
  8
Strichzeichnung
 62
   250
420
  2039073
370
    25
100
AcDbVertex
100
AcDb2dVertex
 10
29.32210394299911
 20
-152.8979478566579
 30
0.0
  0
VERTEX
  5
1C8
330
1C3
100
AcDbEntity
  8
Strichzeichnung
 62
   250
420
  2039073
370
    25
100
AcDbVertex
100
AcDb2dVertex
 10
26.74147523253313
 20
-152.8979478566579
 30
0.0
  0
SEQEND
  5
1C9
330
1C3
100
AcDbEntity
  8
Strichzeichnung
 62
   250
420
  2039073
370
    25
  0
POLYLINE
  5
1CA
330
1BF
100
AcDbEntity
  8
Strichzeichnung
 62
   250
420
  2039073
370
    25
100
AcDb2dPolyline
 66
     1
 10
0.0
 20
0.0
 30
0.0
  0
VERTEX
  5
1CB
330
1CA
100
AcDbEntity
  8
Strichzeichnung
 62
   250
420
  2039073
370
    25
100
AcDbVertex
100
AcDb2dVertex
 10
71.72431077684303
 20
-152.9704789677506
 30
0.0
  0
VERTEX
  5
1CC
330
1CA
100
AcDbEntity
  8
Strichzeichnung
 62
   250
420
  2039073
370
    25
100
AcDbVertex
100
AcDb2dVertex
 10
71.72431077684303
 20
-163.7405022983917
 30
0.0
  0
VERTEX
  5
1CD
330
1CA
100
AcDbEntity
  8
Strichzeichnung
 62
   250
420
  2039073
370
    25
100
AcDbVertex
100
AcDb2dVertex
 10
74.30494964047045
 20
-163.7405022983917
 30
0.0
  0
VERTEX
  5
1CE
330
1CA
100
AcDbEntity
  8
Strichzeichnung
 62
   250
420
  2039073
370
    25
100
AcDbVertex
100
AcDb2dVertex
 10
74.30494964047045
 20
-152.9704789677506
 30
0.0
  0
VERTEX
  5
1CF
330
1CA
100
AcDbEntity
  8
Strichzeichnung
 62
   250
420
  2039073
370
    25
100
AcDbVertex
100
AcDb2dVertex
 10
71.72431077684303
 20
-152.9704789677506
 30
0.0
  0
SEQEND
  5
1D0
330
1CA
100
AcDbEntity
  8
Strichzeichnung
 62
   250
420
  2039073
370
    25
  0
POLYLINE
  5
1D1
330
1BF
100
AcDbEntity
  8
Strichzeichnung
 62
   250
420
  2039073
370
    25
100
AcDb2dPolyline
 66
     1
 10
0.0
 20
0.0
 30
0.0
  0
VERTEX
  5
1D2
330
1D1
100
AcDbEntity
  8
Strichzeichnung
 62
   250
420
  2039073
370
    25
100
AcDbVertex
100
AcDb2dVertex
 10
26.94210348248314
 20
-163.6679711872987
 30
0.0
  0
VERTEX
  5
1D3
330
1D1
100
AcDbEntity
  8
Strichzeichnung
 62
   250
420
  2039073
370
    25
100
AcDbVertex
100
AcDb2dVertex
 10
27.03492637134869
 20
-166.0436825755937
 30
0.0
  0
VERTEX
  5
1D4
330
1D1
100
AcDbEntity
  8
Strichzeichnung
 62
   250
420
  2039073
370
    25
100
AcDbVertex
100
AcDb2dVertex
 10
29.02546510418454
 20
-166.0436825755937
 30
0.0
  0
VERTEX
  5
1D5
330
1D1
100
AcDbEntity
  8
Strichzeichnung
 62
   250
420
  2039073
370
    25
100
AcDbVertex
100
AcDb2dVertex
 10
29.10355458194281
 20
-163.6679711872987
 30
0.0
  0
SEQEND
  5
1D6
330
1D1
100
AcDbEntity
  8
Strichzeichnung
 62
   250
420
  2039073
370
    25
  0
POLYLINE
  5
1D7
330
1BF
100
AcDbEntity
  8
Strichzeichnung
 62
   250
420
  2039073
370
    25
100
AcDb2dPolyline
 66
     1
 10
0.0
 20
0.0
 30
0.0
  0
VERTEX
  5
1D8
330
1D7
100
AcDbEntity
  8
Strichzeichnung
 62
   250
420
  2039073
370
    25
100
AcDbVertex
100
AcDb2dVertex
 10
71.93403608984639
 20
-163.7405022983917
 30
0.0
  0
VERTEX
  5
1D9
330
1D7
100
AcDbEntity
  8
Strichzeichnung
 62
   250
420
  2039073
370
    25
100
AcDbVertex
100
AcDb2dVertex
 10
72.0263580319355
 20
-166.1162136866864
 30
0.0
  0
VERTEX
  5
1DA
330
1D7
100
AcDbEntity
  8
Strichzeichnung
 62
   250
420
  2039073
370
    25
100
AcDbVertex
100
AcDb2dVertex
 10
74.0169065922635
 20
-166.1162136866864
 30
0.0
  0
VERTEX
  5
1DB
330
1D7
100
AcDbEntity
  8
Strichzeichnung
 62
   250
420
  2039073
370
    25
100
AcDbVertex
100
AcDb2dVertex
 10
74.09522325693213
 20
-163.7405022983917
 30
0.0
  0
SEQEND
  5
1DC
330
1D7
100
AcDbEntity
  8
Strichzeichnung
 62
   250
420
  2039073
370
    25
  0
POLYLINE
  5
1DD
330
1BF
100
AcDbEntity
  8
Strichzeichnung
 62
   250
420
  2039073
370
    25
100
AcDb2dPolyline
 66
     1
 10
0.0
 20
0.0
 30
0.0
  0
VERTEX
  5
1DE
330
1DD
100
AcDbEntity
  8
Strichzeichnung
 62
   250
420
  2039073
370
    25
100
AcDbVertex
100
AcDb2dVertex
 10
29.32210605966586
 20
-163.6679711872987
 30
0.0
  0
VERTEX
  5
1DF
330
1DD
100
AcDbEntity
  8
Strichzeichnung
 62
   250
420
  2039073
370
    25
100
AcDbVertex
100
AcDb2dVertex
 10
29.32210535411038
 20
-159.6092275772021
 30
0.0
  0
VERTEX
  5
1E0
330
1DD
100
AcDbEntity
  8
Strichzeichnung
 62
   250
420
  2039073
370
    25
100
AcDbVertex
100
AcDb2dVertex
 10
71.72480359518435
 20
-159.6817586882952
 30
0.0
  0
VERTEX
  5
1E1
330
1DD
100
AcDbEntity
  8
Strichzeichnung
 62
   250
420
  2039073
370
    25
100
AcDbVertex
100
AcDb2dVertex
 10
71.72480359518435
 20
-163.7405022983917
 30
0.0
  0
VERTEX
  5
1E2
330
1DD
100
AcDbEntity
  8
Strichzeichnung
 62
   250
420
  2039073
370
    25
100
AcDbVertex
100
AcDb2dVertex
 10
29.32210605966586
 20
-163.6679711872987
 30
0.0
  0
SEQEND
  5
1E3
330
1DD
100
AcDbEntity
  8
Strichzeichnung
 62
   250
420
  2039073
370
    25
  0
SPLINE
  5
1E4
330
1BF
100
AcDbEntity
  8
Strichzeichnung
 62
   250
420
  2039073
370
    25
100
AcDbSpline
210
0.0
220
0.0
230
1.0
 70
    11
 71
     3
 72
    29
 73
    25
 74
     0
 42
0.0000000001
 43
0.0000000001
 12
1.0
 22
0.0
 32
0.0
 13
1.0
 23
0.0
 33
0.0
 40
0.0
 40
0.0
 40
0.0
 40
0.0
 40
1.0
 40
1.0
 40
1.0
 40
2.0
 40
2.0
 40
2.0
 40
3.0
 40
3.0
 40
3.0
 40
4.0
 40
4.0
 40
4.0
 40
5.0
 40
5.0
 40
5.0
 40
6.0
 40
6.0
 40
6.0
 40
7.0
 40
7.0
 40
7.0
 40
8.0
 40
8.0
 40
8.0
 40
8.0
 10
29.32210535411038
 20
-159.1832484106421
 30
0.0
 10
29.32210535411038
 20
-159.1832484106421
 30
0.0
 10
29.84000006509192
 20
-159.6092275772021
 30
0.0
 10
30.97303409258658
 20
-159.6092275772021
 30
0.0
 10
32.10630095341441
 20
-159.6092275772021
 30
0.0
 10
48.80268050479574
 20
-159.609192299424
 30
0.0
 10
49.37901356020732
 20
-159.609192299424
 30
0.0
 10
49.95509967117435
 20
-159.609192299424
 30
0.0
 10
50.87694328205485
 20
-159.1832131328643
 30
0.0
 10
50.87694328205485
 20
-159.1832131328643
 30
0.0
 10
50.87694328205485
 20
-159.1832131328643
 30
0.0
 10
50.87694328205485
 20
-155.8687248003595
 30
0.0
 10
50.87694328205485
 20
-155.8687248003595
 30
0.0
 10
50.87694328205485
 20
-155.8687248003595
 30
0.0
 10
50.33916883774508
 20
-155.3872184115911
 30
0.0
 10
49.22551994913437
 20
-155.3132409116095
 30
0.0
 10
48.11165939385726
 20
-155.2392281338503
 30
0.0
 10
31.76079745350055
 20
-155.220636744966
 30
0.0
 10
30.93496231481819
 20
-155.3132409116095
 30
0.0
 10
30.10864387058042
 20
-155.4058098004751
 30
0.0
 10
29.32210429577701
 20
-155.7020373004012
 30
0.0
 10
29.32210429577701
 20
-155.7020373004012
 30
0.0
 10
29.32210429577701
 20
-155.7020373004012
 30
0.0
 10
29.32210535411038
 20
-159.1832484106421
 30
0.0
 10
29.32210535411038
 20
-159.1832484106421
 30
0.0
  0
SPLINE
  5
1E5
330
1BF
100
AcDbEntity
  8
Strichzeichnung
 62
   250
420
  2039073
370
    25
100
AcDbSpline
210
0.0
220
0.0
230
1.0
 70
    11
 71
     3
 72
    29
 73
    25
 74
     0
 42
0.0000000001
 43
0.0000000001
 12
1.0
 22
0.0
 32
0.0
 13
1.0
 23
0.0
 33
0.0
 40
0.0
 40
0.0
 40
0.0
 40
0.0
 40
1.0
 40
1.0
 40
1.0
 40
2.0
 40
2.0
 40
2.0
 40
3.0
 40
3.0
 40
3.0
 40
4.0
 40
4.0
 40
4.0
 40
5.0
 40
5.0
 40
5.0
 40
6.0
 40
6.0
 40
6.0
 40
7.0
 40
7.0
 40
7.0
 40
8.0
 40
8.0
 40
8.0
 40
8.0
 10
50.87694328205485
 20
-159.1832131328643
 30
0.0
 10
50.87694328205485
 20
-159.1832131328643
 30
0.0
 10
51.39704355970255
 20
-159.609192299424
 30
0.0
 10
52.53425800386246
 20
-159.609192299424
 30
0.0
 10
53.67246022580061
 20
-159.609192299424
 30
0.0
 10
69.64143920389097
 20
-159.6817586882952
 30
0.0
 10
70.21999474468633
 20
-159.6817586882952
 30
0.0
 10
70.79855028548171
 20
-159.6817586882952
 30
0.0
 10
71.72431077684303
 20
-159.2557795217346
 30
0.0
 10
71.72431077684303
 20
-159.2557795217346
 30
0.0
 10
71.72431077684303
 20
-159.2557795217346
 30
0.0
 10
71.72431077684303
 20
-155.9412559114525
 30
0.0
 10
71.72431077684303
 20
-155.9412559114525
 30
0.0
 10
71.72431077684303
 20
-155.9412559114525
 30
0.0
 10
71.18456077697805
 20
-155.4597495226838
 30
0.0
 10
70.06600724861488
 20
-155.3857720227026
 30
0.0
 10
68.94749005492841
 20
-155.3117592449431
 30
0.0
 10
53.32546800366465
 20
-155.220636744966
 30
0.0
 10
52.49594633720584
 20
-155.3132409116095
 30
0.0
 10
51.66691855963551
 20
-155.4058098004751
 30
0.0
 10
50.87694328205485
 20
-155.7020373004012
 30
0.0
 10
50.87694328205485
 20
-155.7020373004012
 30
0.0
 10
50.87694328205485
 20
-155.7020373004012
 30
0.0
 10
50.87694328205485
 20
-159.1832131328643
 30
0.0
 10
50.87694328205485
 20
-159.1832131328643
 30
0.0
  0
SPLINE
  5
1E6
330
1BF
100
AcDbEntity
  8
Strichzeichnung
 62
   250
420
  2039073
370
    25
100
AcDbSpline
210
0.0
220
0.0
230
1.0
 70
     8
 71
     3
 72
    29
 73
    25
 74
     0
 42
0.0000000001
 43
0.0000000001
 12
1.0
 22
0.0
 32
0.0
 13
1.0
 23
0.0
 33
0.0
 40
0.0
 40
0.0
 40
0.0
 40
0.0
 40
1.0
 40
1.0
 40
1.0
 40
2.0
 40
2.0
 40
2.0
 40
3.0
 40
3.0
 40
3.0
 40
4.0
 40
4.0
 40
4.0
 40
5.0
 40
5.0
 40
5.0
 40
6.0
 40
6.0
 40
6.0
 40
7.0
 40
7.0
 40
7.0
 40
8.0
 40
8.0
 40
8.0
 40
8.0
 10
26.74147523253313
 20
-152.8979478566579
 30
0.0
 10
26.74147523253313
 20
-152.8979478566579
 30
0.0
 10
25.41640662175343
 20
-152.868914245554
 30
0.0
 10
25.30270634400414
 20
-151.9061484124615
 30
0.0
 10
25.18900606625485
 20
-150.9435236904798
 30
0.0
 10
24.99772995519129
 20
-150.0837689684724
 30
0.0
 10
25.566689955049
 20
-149.7875414685463
 30
0.0
 10
26.1356675937958
 20
-149.4914550797316
 30
0.0
 10
28.3148006210287
 20
-149.6100589685907
 30
0.0
 10
28.95915981531215
 20
-149.721360357452
 30
0.0
 10
29.60327277070684
 20
-149.8325206352019
 30
0.0
 10
30.61105939823267
 20
-150.239908412878
 30
0.0
 10
31.1036641758872
 20
-150.6472961905536
 30
0.0
 10
31.59651942576398
 20
-151.0544370237854
 30
0.0
 10
33.03700634207055
 20
-152.6283198011695
 30
0.0
 10
33.30268328644855
 20
-153.5358053564981
 30
0.0
 10
33.75773134189026
 20
-155.0913789672206
 30
0.0
 10
33.07725828650486
 20
-155.2222242449656
 30
0.0
 10
32.6583240921651
 20
-155.2505170227365
 30
0.0
 10
32.23939695338102
 20
-155.2785981338402
 30
0.0
 10
31.24584067585157
 20
-155.2505170227365
 30
0.0
 10
30.38344364828937
 20
-155.2505170227365
 30
0.0
 10
29.73882692622829
 20
-155.2505170227365
 30
0.0
 10
29.31596631522289
 20
-155.3502825782671
 30
0.0
 10
29.32210429577701
 20
-154.4245936896093
 30
0.0
  0
SPLINE
  5
1E7
330
1BF
100
AcDbEntity
  8
Strichzeichnung
 62
   250
420
  2039073
370
    25
100
AcDbSpline
210
0.0
220
0.0
230
1.0
 70
     8
 71
     3
 72
    20
 73
    16
 74
     0
 42
0.0000000001
 43
0.0000000001
 12
1.0
 22
0.0
 32
0.0
 13
1.0
 23
0.0
 33
0.0
 40
0.0
 40
0.0
 40
0.0
 40
0.0
 40
1.0
 40
1.0
 40
1.0
 40
2.0
 40
2.0
 40
2.0
 40
3.0
 40
3.0
 40
3.0
 40
4.0
 40
4.0
 40
4.0
 40
5.0
 40
5.0
 40
5.0
 40
5.0
 10
28.95915981531215
 20
-149.721360357452
 30
0.0
 10
28.95915981531215
 20
-149.721360357452
 30
0.0
 10
28.91888670421108
 20
-148.8508106354474
 30
0.0
 10
28.95915981531215
 20
-148.1288509134058
 30
0.0
 10
28.99943292641322
 20
-147.4066795246972
 30
0.0
 10
29.4544622846328
 20
-147.0177420247945
 30
0.0
 10
29.96646031506035
 20
-147.0177420247945
 30
0.0
 10
30.47821387048798
 20
-147.0177420247945
 30
0.0
 10
49.3800013379846
 20
-147.0177420247945
 30
0.0
 10
49.94846744895384
 20
-147.0177420247945
 30
0.0
 10
50.51742744881156
 20
-147.0177420247945
 30
0.0
 10
50.89511133760603
 20
-147.277386469174
 30
0.0
 10
50.87694328205485
 20
-148.3697981355675
 30
0.0
 10
50.85852828205942
 20
-149.4621745241835
 30
0.0
 10
50.87694328205485
 20
-155.7020373004012
 30
0.0
 10
50.87694328205485
 20
-155.7020373004012
 30
0.0
  0
SPLINE
  5
1E8
330
1BF
100
AcDbEntity
  8
Strichzeichnung
 62
   250
420
  2039073
370
    25
100
AcDbSpline
210
0.0
220
0.0
230
1.0
 70
     8
 71
     3
 72
    20
 73
    16
 74
     0
 42
0.0000000001
 43
0.0000000001
 12
1.0
 22
0.0
 32
0.0
 13
1.0
 23
0.0
 33
0.0
 40
0.0
 40
0.0
 40
0.0
 40
0.0
 40
1.0
 40
1.0
 40
1.0
 40
2.0
 40
2.0
 40
2.0
 40
3.0
 40
3.0
 40
3.0
 40
4.0
 40
4.0
 40
4.0
 40
5.0
 40
5.0
 40
5.0
 40
5.0
 10
71.99690108824257
 20
-149.7938914685448
 30
0.0
 10
71.99690108824257
 20
-149.7938914685448
 30
0.0
 10
72.03739997609824
 20
-148.9234828576515
 30
0.0
 10
71.99690108824257
 20
-148.2013820244986
 30
0.0
 10
71.95611997817187
 20
-147.4792106357903
 30
0.0
 10
71.50160110087873
 20
-147.0902731358875
 30
0.0
 10
70.9896147250517
 20
-147.0902731358875
 30
0.0
 10
70.47808696032408
 20
-147.0902731358875
 30
0.0
 10
52.35868050390671
 20
-147.0177420247945
 30
0.0
 10
51.78993217071572
 20
-147.0177420247945
 30
0.0
 10
51.22121911530224
 20
-147.0177420247945
 30
0.0
 10
50.8435705042856
 20
-147.277386469174
 30
0.0
 10
50.86149161539223
 20
-148.3697981355675
 30
0.0
 10
50.8801535598319
 20
-149.4621745241835
 30
0.0
 10
50.86149161539223
 20
-155.7020373004012
 30
0.0
 10
50.86149161539223
 20
-155.7020373004012
 30
0.0
  0
SPLINE
  5
1E9
330
1BF
100
AcDbEntity
  8
Strichzeichnung
 62
   250
420
  2039073
370
    25
100
AcDbSpline
210
0.0
220
0.0
230
1.0
 70
     8
 71
     3
 72
    29
 73
    25
 74
     0
 42
0.0000000001
 43
0.0000000001
 12
1.0
 22
0.0
 32
0.0
 13
1.0
 23
0.0
 33
0.0
 40
0.0
 40
0.0
 40
0.0
 40
0.0
 40
1.0
 40
1.0
 40
1.0
 40
2.0
 40
2.0
 40
2.0
 40
3.0
 40
3.0
 40
3.0
 40
4.0
 40
4.0
 40
4.0
 40
5.0
 40
5.0
 40
5.0
 40
6.0
 40
6.0
 40
6.0
 40
7.0
 40
7.0
 40
7.0
 40
8.0
 40
8.0
 40
8.0
 40
8.0
 10
74.29905825173219
 20
-152.9704789677506
 30
0.0
 10
74.29905825173219
 20
-152.9704789677506
 30
0.0
 10
75.62384460682264
 20
-152.9414453566467
 30
0.0
 10
75.73782710391471
 20
-151.9786795235543
 30
0.0
 10
75.85149210101487
 20
-151.0160548015728
 30
0.0
 10
76.04231077576344
 20
-150.1563000795655
 30
0.0
 10
75.47384349953838
 20
-149.8600725796397
 30
0.0
 10
74.90484823627688
 20
-149.5639861908247
 30
0.0
 10
72.72570468076034
 20
-149.6825900796838
 30
0.0
 10
72.08160303052608
 20
-149.7938914685448
 30
0.0
 10
71.43700749141553
 20
-149.904910635184
 30
0.0
 10
70.42943890600964
 20
-150.3124395239707
 30
0.0
 10
69.93660836302723
 20
-150.7198273016467
 30
0.0
 10
69.44423643114425
 20
-151.1269681348782
 30
0.0
 10
68.00328035679499
 20
-152.7008861900404
 30
0.0
 10
67.73756911117323
 20
-153.6083717453691
 30
0.0
 10
67.2830492640585
 20
-155.1639100783133
 30
0.0
 10
67.9632753578156
 20
-155.2947553560587
 30
0.0
 10
68.38219895823907
 20
-155.3231892449402
 30
0.0
 10
68.80112255866256
 20
-155.3511292449333
 30
0.0
 10
69.79443892220984
 20
-155.3231892449402
 30
0.0
 10
70.65708640020186
 20
-155.3231892449402
 30
0.0
 10
71.30171721708929
 20
-155.3231892449402
 30
0.0
 10
71.72480359518435
 20
-155.4228489671376
 30
0.0
 10
71.71841831756947
 20
-154.4971248007024
 30
0.0
  0
SPLINE
  5
1EA
330
1BF
100
AcDbEntity
  8
Strichzeichnung
 62
   250
420
  2039073
370
    25
100
AcDbSpline
210
0.0
220
0.0
230
1.0
 70
     8
 71
     3
 72
     8
 73
     4
 74
     0
 42
0.0000000001
 43
0.0000000001
 12
1.0
 22
0.0
 32
0.0
 13
1.0
 23
0.0
 33
0.0
 40
0.0
 40
0.0
 40
0.0
 40
0.0
 40
1.0
 40
1.0
 40
1.0
 40
1.0
 10
50.87595550427756
 20
-148.3697981355675
 30
0.0
 10
50.8752146709442
 20
-149.452473135297
 30
0.0
 10
50.87743717094332
 20
-155.6367734115285
 30
0.0
 10
50.87743717094332
 20
-155.6367734115285
 30
0.0
  0
ENDBLK
  5
1C2
330
1BF
100
AcDbEntity
  8
0
100
AcDbBlockEnd
  0
BLOCK
  5
1ED
330
1EB
100
AcDbEntity
  8
0
100
AcDbBlockBegin
  2
block 10
 70
     0
 10
0.0
 20
0.0
 30
0.0
  3
block 10
  1

  0
SPLINE
  5
1EF
330
1EB
100
AcDbEntity
  8
Strichzeichnung
 62
   250
420
  2039073
370
    25
100
AcDbSpline
210
0.0
220
0.0
230
1.0
 70
    11
 71
     3
 72
    29
 73
    25
 74
     0
 42
0.0000000001
 43
0.0000000001
 12
1.0
 22
0.0
 32
0.0
 13
1.0
 23
0.0
 33
0.0
 40
0.0
 40
0.0
 40
0.0
 40
0.0
 40
1.0
 40
1.0
 40
1.0
 40
2.0
 40
2.0
 40
2.0
 40
3.0
 40
3.0
 40
3.0
 40
4.0
 40
4.0
 40
4.0
 40
5.0
 40
5.0
 40
5.0
 40
6.0
 40
6.0
 40
6.0
 40
7.0
 40
7.0
 40
7.0
 40
8.0
 40
8.0
 40
8.0
 40
8.0
 10
27.74153206481971
 20
-342.9263544758174
 30
0.0
 10
27.74153206481971
 20
-342.9263544758174
 30
0.0
 10
26.87066484281515
 20
-342.9000372536018
 30
0.0
 10
26.87066484281515
 20
-341.9433391982847
 30
0.0
 10
26.87066484281515
 20
-340.9866411429689
 30
0.0
 10
26.87066484281515
 20
-338.0461325325933
 30
0.0
 10
26.87066484281515
 20
-338.0461325325933
 30
0.0
 10
26.87066484281515
 20
-338.0461325325933
 30
0.0
 10
26.94337234279709
 20
-337.3020889216677
 30
0.0
 10
27.74153206481971
 20
-337.3020889216677
 30
0.0
 10
28.53969178684265
 20
-337.3020889216677
 30
0.0
 10
39.85712039512438
 20
-337.3020536438895
 30
0.0
 10
40.54627178384085
 20
-337.3020536438895
 30
0.0
 10
41.23542317255732
 20
-337.3020536438895
 30
0.0
 10
41.56181317247592
 20
-337.83351336598
 30
0.0
 10
41.56181317247592
 20
-338.5062958658107
 30
0.0
 10
41.56181317247592
 20
-339.1796780878649
 30
0.0
 10
41.56181317247592
 20
-341.1634533651465
 30
0.0
 10
41.56181317247592
 20
-341.7658566983297
 30
0.0
 10
41.56181317247592
 20
-342.368260031513
 30
0.0
 10
41.41678622806764
 20
-342.9348916980375
 30
0.0
 10
40.655280117147
 20
-342.9336569758159
 30
0.0
 10
39.89345650622643
 20
-342.9327750313709
 30
0.0
 10
27.74153206481971
 20
-342.9263544758174
 30
0.0
 10
27.74153206481971
 20
-342.9263544758174
 30
0.0
  0
SPLINE
  5
1F0
330
1EB
100
AcDbEntity
  8
Strichzeichnung
 62
   250
420
  2039073
370
    25
100
AcDbSpline
210
0.0
220
0.0
230
1.0
 70
     8
 71
     3
 72
    26
 73
    22
 74
     0
 42
0.0000000001
 43
0.0000000001
 12
1.0
 22
0.0
 32
0.0
 13
1.0
 23
0.0
 33
0.0
 40
0.0
 40
0.0
 40
0.0
 40
0.0
 40
1.0
 40
1.0
 40
1.0
 40
2.0
 40
2.0
 40
2.0
 40
3.0
 40
3.0
 40
3.0
 40
4.0
 40
4.0
 40
4.0
 40
5.0
 40
5.0
 40
5.0
 40
6.0
 40
6.0
 40
6.0
 40
7.0
 40
7.0
 40
7.0
 40
7.0
 10
30.69001345297147
 20
-342.9336569758159
 30
0.0
 10
30.69001345297147
 20
-342.9336569758159
 30
0.0
 10
30.42595928637093
 20
-342.9336569758159
 30
0.0
 10
30.42595928637093
 20
-342.9336569758159
 30
0.0
 10
30.42595928637093
 20
-342.9336569758159
 30
0.0
 10
30.42595928637093
 20
-355.6812466948503
 30
0.0
 10
30.42595928637093
 20
-356.1500883614003
 30
0.0
 10
30.42595928637093
 20
-356.6194239168382
 30
0.0
 10
30.54329317523039
 20
-356.7463886390291
 30
0.0
 10
30.92468123069071
 20
-356.7463886390291
 30
0.0
 10
31.30635150837312
 20
-356.7463886390291
 30
0.0
 10
37.26363928466165
 20
-356.7463886390291
 30
0.0
 10
37.55711511792134
 20
-356.7463886390291
 30
0.0
 10
37.92269872894129
 20
-356.7463886390291
 30
0.0
 10
38.04356039557773
 20
-356.7499164168054
 30
0.0
 10
38.02673289558191
 20
-356.1500530836221
 30
0.0
 10
38.00923511780872
 20
-355.5279294726669
 30
0.0
 10
38.02673289558191
 20
-342.9336569758159
 30
0.0
 10
38.02673289558191
 20
-342.9336569758159
 30
0.0
 10
38.02673289558191
 20
-342.9336569758159
 30
0.0
 10
37.7629256734256
 20
-342.9336569758159
 30
0.0
 10
37.7629256734256
 20
-342.9336569758159
 30
0.0
  0
SPLINE
  5
1F1
330
1EB
100
AcDbEntity
  8
Strichzeichnung
 62
   250
420
  2039073
370
    25
100
AcDbSpline
210
0.0
220
0.0
230
1.0
 70
     8
 71
     3
 72
    20
 73
    16
 74
     0
 42
0.0000000001
 43
0.0000000001
 12
1.0
 22
0.0
 32
0.0
 13
1.0
 23
0.0
 33
0.0
 40
0.0
 40
0.0
 40
0.0
 40
0.0
 40
1.0
 40
1.0
 40
1.0
 40
2.0
 40
2.0
 40
2.0
 40
3.0
 40
3.0
 40
3.0
 40
4.0
 40
4.0
 40
4.0
 40
5.0
 40
5.0
 40
5.0
 40
5.0
 10
30.7655784529527
 20
-342.9336569758159
 30
0.0
 10
30.7655784529527
 20
-342.9336569758159
 30
0.0
 10
30.7655784529527
 20
-355.3686855838178
 30
0.0
 10
30.7655784529527
 20
-355.8364689170339
 30
0.0
 10
30.7655784529527
 20
-356.3047814169166
 30
0.0
 10
30.87243484181477
 20
-356.4314639168855
 30
0.0
 10
31.21974456395033
 20
-356.4314639168855
 30
0.0
 10
31.56730123053013
 20
-356.4314639168855
 30
0.0
 10
36.99235317361828
 20
-356.4314639168855
 30
0.0
 10
37.25958234021836
 20
-356.4314639168855
 30
0.0
 10
37.59249872902363
 20
-356.4314639168855
 30
0.0
 10
37.70256539566275
 20
-356.4349916946625
 30
0.0
 10
37.68721956233333
 20
-355.8364689170339
 30
0.0
 10
37.67130928455975
 20
-355.2157211394115
 30
0.0
 10
37.68721956233333
 20
-342.9336569758159
 30
0.0
 10
37.68721956233333
 20
-342.9336569758159
 30
0.0
  0
ENDBLK
  5
1EE
330
1EB
100
AcDbEntity
  8
0
100
AcDbBlockEnd
  0
BLOCK
  5
1F4
330
1F2
100
AcDbEntity
  8
0
100
AcDbBlockBegin
  2
block 11
 70
     0
 10
0.0
 20
0.0
 30
0.0
  3
block 11
  1

  0
SPLINE
  5
1F6
330
1F2
100
AcDbEntity
  8
Strichzeichnung
 62
   250
420
  2039073
370
    25
100
AcDbSpline
210
0.0
220
0.0
230
1.0
 70
    11
 71
     3
 72
    32
 73
    28
 74
     0
 42
0.0000000001
 43
0.0000000001
 12
1.0
 22
0.0
 32
0.0
 13
1.0
 23
0.0
 33
0.0
 40
0.0
 40
0.0
 40
0.0
 40
0.0
 40
1.0
 40
1.0
 40
1.0
 40
2.0
 40
2.0
 40
2.0
 40
3.0
 40
3.0
 40
3.0
 40
4.0
 40
4.0
 40
4.0
 40
5.0
 40
5.0
 40
5.0
 40
6.0
 40
6.0
 40
6.0
 40
7.0
 40
7.0
 40
7.0
 40
8.0
 40
8.0
 40
8.0
 40
9.0
 40
9.0
 40
9.0
 40
9.0
 10
231.5052744616681
 20
-89.69576287245857
 30
0.0
 10
231.5052744616681
 20
-89.69576287245857
 30
0.0
 10
231.5052744616681
 20
-99.3226803700517
 30
0.0
 10
231.5052744616681
 20
-99.3226803700517
 30
0.0
 10
231.5052744616681
 20
-100.1393962031808
 30
0.0
 10
232.1734708335098
 20
-100.8075925919024
 30
0.0
 10
232.990186646007
 20
-100.8075925919024
 30
0.0
 10
232.990186646007
 20
-100.8075925919024
 30
0.0
 10
238.0066159624717
 20
-100.8075925919024
 30
0.0
 10
238.0066159624717
 20
-100.8075925919024
 30
0.0
 10
238.823296497192
 20
-100.8075925919024
 30
0.0
 10
239.4914928690338
 20
-100.1393962031808
 30
0.0
 10
239.4914928690338
 20
-99.3226803700517
 30
0.0
 10
239.4914928690338
 20
-99.3226803700517
 30
0.0
 10
239.4914928690338
 20
-84.33272926268793
 30
0.0
 10
239.4914928690338
 20
-84.33272926268793
 30
0.0
 10
239.4914928690338
 20
-83.5160487073367
 30
0.0
 10
238.823296497192
 20
-82.8478523186147
 30
0.0
 10
238.0066159624717
 20
-82.8478523186147
 30
0.0
 10
238.0066159624717
 20
-82.8478523186147
 30
0.0
 10
235.4921924155089
 20
-82.8478523186147
 30
0.0
 10
235.4921924155089
 20
-82.8478523186147
 30
0.0
 10
235.4921924155089
 20
-82.8478523186147
 30
0.0
 10
235.4921924155089
 20
-89.69576287245857
 30
0.0
 10
235.4921924155089
 20
-89.69576287245857
 30
0.0
 10
235.4921924155089
 20
-89.69576287245857
 30
0.0
 10
231.5052744616681
 20
-89.69576287245857
 30
0.0
 10
231.5052744616681
 20
-89.69576287245857
 30
0.0
  0
SPLINE
  5
1F7
330
1F2
100
AcDbEntity
  8
Strichzeichnung
 62
   250
420
  2039073
370
    25
100
AcDbSpline
210
0.0
220
0.0
230
1.0
 70
    11
 71
     3
 72
    32
 73
    28
 74
     0
 42
0.0000000001
 43
0.0000000001
 12
1.0
 22
0.0
 32
0.0
 13
1.0
 23
0.0
 33
0.0
 40
0.0
 40
0.0
 40
0.0
 40
0.0
 40
1.0
 40
1.0
 40
1.0
 40
2.0
 40
2.0
 40
2.0
 40
3.0
 40
3.0
 40
3.0
 40
4.0
 40
4.0
 40
4.0
 40
5.0
 40
5.0
 40
5.0
 40
6.0
 40
6.0
 40
6.0
 40
7.0
 40
7.0
 40
7.0
 40
8.0
 40
8.0
 40
8.0
 40
9.0
 40
9.0
 40
9.0
 40
9.0
 10
204.8800073631575
 20
-89.69576287245857
 30
0.0
 10
204.8800073631575
 20
-89.69576287245857
 30
0.0
 10
204.8800073631575
 20
-99.3226803700517
 30
0.0
 10
204.8800073631575
 20
-99.3226803700517
 30
0.0
 10
204.8800073631575
 20
-100.1393962031808
 30
0.0
 10
204.2118109913157
 20
-100.8075925919024
 30
0.0
 10
203.3950951788185
 20
-100.8075925919024
 30
0.0
 10
203.3950951788185
 20
-100.8075925919024
 30
0.0
 10
198.3786658623538
 20
-100.8075925919024
 30
0.0
 10
198.3786658623538
 20
-100.8075925919024
 30
0.0
 10
197.5619853276335
 20
-100.8075925919024
 30
0.0
 10
196.8937889557917
 20
-100.1393962031808
 30
0.0
 10
196.8937889557917
 20
-99.3226803700517
 30
0.0
 10
196.8937889557917
 20
-99.3226803700517
 30
0.0
 10
196.8937889557917
 20
-84.33272926268793
 30
0.0
 10
196.8937889557917
 20
-84.33272926268793
 30
0.0
 10
196.8937889557917
 20
-83.5160487073367
 30
0.0
 10
197.5619853276335
 20
-82.8478523186147
 30
0.0
 10
198.3786658623538
 20
-82.8478523186147
 30
0.0
 10
198.3786658623538
 20
-82.8478523186147
 30
0.0
 10
200.8930894093166
 20
-82.8478523186147
 30
0.0
 10
200.8930894093166
 20
-82.8478523186147
 30
0.0
 10
200.8930894093166
 20
-82.8478523186147
 30
0.0
 10
200.8930894093166
 20
-89.69576287245857
 30
0.0
 10
200.8930894093166
 20
-89.69576287245857
 30
0.0
 10
200.8930894093166
 20
-89.69576287245857
 30
0.0
 10
204.8800073631575
 20
-89.69576287245857
 30
0.0
 10
204.8800073631575
 20
-89.69576287245857
 30
0.0
  0
POLYLINE
  5
1F8
330
1F2
100
AcDbEntity
  8
Strichzeichnung
 62
   250
420
  2039073
370
    25
100
AcDb2dPolyline
 66
     1
 10
0.0
 20
0.0
 30
0.0
  0
VERTEX
  5
1F9
330
1F8
100
AcDbEntity
  8
Strichzeichnung
 62
   250
420
  2039073
370
    25
100
AcDbVertex
100
AcDb2dVertex
 10
218.1412411915018
 20
-102.6733637025472
 30
0.0
  0
VERTEX
  5
1FA
330
1F8
100
AcDbEntity
  8
Strichzeichnung
 62
   250
420
  2039073
370
    25
100
AcDbVertex
100
AcDb2dVertex
 10
218.1412411915018
 20
-82.8478523186147
 30
0.0
  0
SEQEND
  5
1FB
330
1F8
100
AcDbEntity
  8
Strichzeichnung
 62
   250
420
  2039073
370
    25
  0
POLYLINE
  5
1FC
330
1F2
100
AcDbEntity
  8
Strichzeichnung
 62
   250
420
  2039073
370
    25
100
AcDb2dPolyline
 66
     1
 10
0.0
 20
0.0
 30
0.0
  0
VERTEX
  5
1FD
330
1FC
100
AcDbEntity
  8
Strichzeichnung
 62
   250
420
  2039073
370
    25
100
AcDbVertex
100
AcDb2dVertex
 10
237.9888006851484
 20
-82.83822148528387
 30
0.0
  0
VERTEX
  5
1FE
330
1FC
100
AcDbEntity
  8
Strichzeichnung
 62
   250
420
  2039073
370
    25
100
AcDbVertex
100
AcDb2dVertex
 10
237.9888006851484
 20
-80.9701573190843
 30
0.0
  0
VERTEX
  5
1FF
330
1FC
100
AcDbEntity
  8
Strichzeichnung
 62
   250
420
  2039073
370
    25
100
AcDbVertex
100
AcDb2dVertex
 10
237.9831209630711
 20
-80.9701573190843
 30
0.0
  0
VERTEX
  5
200
330
1FC
100
AcDbEntity
  8
Strichzeichnung
 62
   250
420
  2039073
370
    25
100
AcDbVertex
100
AcDb2dVertex
 10
198.396516417454
 20
-80.9701573190843
 30
0.0
  0
VERTEX
  5
201
330
1FC
100
AcDbEntity
  8
Strichzeichnung
 62
   250
420
  2039073
370
    25
100
AcDbVertex
100
AcDb2dVertex
 10
198.396516417454
 20
-82.84827565194782
 30
0.0
  0
SEQEND
  5
202
330
1FC
100
AcDbEntity
  8
Strichzeichnung
 62
   250
420
  2039073
370
    25
  0
POLYLINE
  5
203
330
1F2
100
AcDbEntity
  8
Strichzeichnung
 62
   250
420
  2039073
370
    25
100
AcDb2dPolyline
 66
     1
 10
0.0
 20
0.0
 30
0.0
  0
VERTEX
  5
204
330
203
100
AcDbEntity
  8
Strichzeichnung
 62
   250
420
  2039073
370
    25
100
AcDbVertex
100
AcDb2dVertex
 10
235.4984013042394
 20
-101.5820456472645
 30
0.0
  0
VERTEX
  5
205
330
203
100
AcDbEntity
  8
Strichzeichnung
 62
   250
420
  2039073
370
    25
100
AcDbVertex
100
AcDb2dVertex
 10
237.9888006851484
 20
-101.5820456472645
 30
0.0
  0
VERTEX
  5
206
330
203
100
AcDbEntity
  8
Strichzeichnung
 62
   250
420
  2039073
370
    25
100
AcDbVertex
100
AcDb2dVertex
 10
237.9888006851484
 20
-101.5820809250423
 30
0.0
  0
VERTEX
  5
207
330
203
100
AcDbEntity
  8
Strichzeichnung
 62
   250
420
  2039073
370
    25
100
AcDbVertex
100
AcDb2dVertex
 10
237.9888006851484
 20
-100.731780647477
 30
0.0
  0
SEQEND
  5
208
330
203
100
AcDbEntity
  8
Strichzeichnung
 62
   250
420
  2039073
370
    25
  0
POLYLINE
  5
209
330
1F2
100
AcDbEntity
  8
Strichzeichnung
 62
   250
420
  2039073
370
    25
100
AcDb2dPolyline
 66
     1
 10
0.0
 20
0.0
 30
0.0
  0
VERTEX
  5
20A
330
209
100
AcDbEntity
  8
Strichzeichnung
 62
   250
420
  2039073
370
    25
100
AcDbVertex
100
AcDb2dVertex
 10
200.8869548828205
 20
-82.8478523186147
 30
0.0
  0
VERTEX
  5
20B
330
209
100
AcDbEntity
  8
Strichzeichnung
 62
   250
420
  2039073
370
    25
100
AcDbVertex
100
AcDb2dVertex
 10
235.4983660264625
 20
-82.8478523186147
 30
0.0
  0
SEQEND
  5
20C
330
209
100
AcDbEntity
  8
Strichzeichnung
 62
   250
420
  2039073
370
    25
  0
POLYLINE
  5
20D
330
1F2
100
AcDbEntity
  8
Strichzeichnung
 62
   250
420
  2039073
370
    25
100
AcDb2dPolyline
 66
     1
 10
0.0
 20
0.0
 30
0.0
  0
VERTEX
  5
20E
330
20D
100
AcDbEntity
  8
Strichzeichnung
 62
   250
420
  2039073
370
    25
100
AcDbVertex
100
AcDb2dVertex
 10
200.8869548828205
 20
-80.9701573190843
 30
0.0
  0
VERTEX
  5
20F
330
20D
100
AcDbEntity
  8
Strichzeichnung
 62
   250
420
  2039073
370
    25
100
AcDbVertex
100
AcDb2dVertex
 10
200.886915798363
 20
-86.98660592869103
 30
0.0
  0
VERTEX
  5
210
330
20D
100
AcDbEntity
  8
Strichzeichnung
 62
   250
420
  2039073
370
    25
100
AcDbVertex
100
AcDb2dVertex
 10
235.4983660264625
 20
-86.98660592869103
 30
0.0
  0
SEQEND
  5
211
330
20D
100
AcDbEntity
  8
Strichzeichnung
 62
   250
420
  2039073
370
    25
  0
POLYLINE
  5
212
330
1F2
100
AcDbEntity
  8
Strichzeichnung
 62
   250
420
  2039073
370
    25
100
AcDb2dPolyline
 66
     1
 10
0.0
 20
0.0
 30
0.0
  0
VERTEX
  5
213
330
212
100
AcDbEntity
  8
Strichzeichnung
 62
   250
420
  2039073
370
    25
100
AcDbVertex
100
AcDb2dVertex
 10
235.4984013042394
 20
-100.8075925919024
 30
0.0
  0
VERTEX
  5
214
330
212
100
AcDbEntity
  8
Strichzeichnung
 62
   250
420
  2039073
370
    25
100
AcDbVertex
100
AcDb2dVertex
 10
235.4983660264625
 20
-102.6733637025472
 30
0.0
  0
VERTEX
  5
215
330
212
100
AcDbEntity
  8
Strichzeichnung
 62
   250
420
  2039073
370
    25
100
AcDbVertex
100
AcDb2dVertex
 10
200.886915798363
 20
-102.6733637025472
 30
0.0
  0
VERTEX
  5
216
330
212
100
AcDbEntity
  8
Strichzeichnung
 62
   250
420
  2039073
370
    25
100
AcDbVertex
100
AcDb2dVertex
 10
200.8869548828205
 20
-102.4768664803742
 30
0.0
  0
VERTEX
  5
217
330
212
100
AcDbEntity
  8
Strichzeichnung
 62
   250
420
  2039073
370
    25
100
AcDbVertex
100
AcDb2dVertex
 10
200.8869548828205
 20
-100.7317453696995
 30
0.0
  0
SEQEND
  5
218
330
212
100
AcDbEntity
  8
Strichzeichnung
 62
   250
420
  2039073
370
    25
  0
POLYLINE
  5
219
330
1F2
100
AcDbEntity
  8
Strichzeichnung
 62
   250
420
  2039073
370
    25
100
AcDb2dPolyline
 66
     1
 10
0.0
 20
0.0
 30
0.0
  0
VERTEX
  5
21A
330
219
100
AcDbEntity
  8
Strichzeichnung
 62
   250
420
  2039073
370
    25
100
AcDbVertex
100
AcDb2dVertex
 10
233.5568182982177
 20
-89.69576287245857
 30
0.0
  0
VERTEX
  5
21B
330
219
100
AcDbEntity
  8
Strichzeichnung
 62
   250
420
  2039073
370
    25
100
AcDbVertex
100
AcDb2dVertex
 10
203.0709276870887
 20
-89.69576287245857
 30
0.0
  0
SEQEND
  5
21C
330
219
100
AcDbEntity
  8
Strichzeichnung
 62
   250
420
  2039073
370
    25
  0
POLYLINE
  5
21D
330
1F2
100
AcDbEntity
  8
Strichzeichnung
 62
   250
420
  2039073
370
    25
100
AcDb2dPolyline
 66
     1
 10
0.0
 20
0.0
 30
0.0
  0
VERTEX
  5
21E
330
21D
100
AcDbEntity
  8
Strichzeichnung
 62
   250
420
  2039073
370
    25
100
AcDbVertex
100
AcDb2dVertex
 10
235.4984013042394
 20
-80.9701573190843
 30
0.0
  0
VERTEX
  5
21F
330
21D
100
AcDbEntity
  8
Strichzeichnung
 62
   250
420
  2039073
370
    25
100
AcDbVertex
100
AcDb2dVertex
 10
235.4983660264625
 20
-86.98660592869103
 30
0.0
  0
SEQEND
  5
220
330
21D
100
AcDbEntity
  8
Strichzeichnung
 62
   250
420
  2039073
370
    25
  0
POLYLINE
  5
221
330
1F2
100
AcDbEntity
  8
Strichzeichnung
 62
   250
420
  2039073
370
    25
100
AcDb2dPolyline
 66
     1
 10
0.0
 20
0.0
 30
0.0
  0
VERTEX
  5
222
330
221
100
AcDbEntity
  8
Strichzeichnung
 62
   250
420
  2039073
370
    25
100
AcDbVertex
100
AcDb2dVertex
 10
198.396516417454
 20
-100.8075925919024
 30
0.0
  0
VERTEX
  5
223
330
221
100
AcDbEntity
  8
Strichzeichnung
 62
   250
420
  2039073
370
    25
100
AcDbVertex
100
AcDb2dVertex
 10
198.3964811396771
 20
-101.5820456472645
 30
0.0
  0
VERTEX
  5
224
330
221
100
AcDbEntity
  8
Strichzeichnung
 62
   250
420
  2039073
370
    25
100
AcDbVertex
100
AcDb2dVertex
 10
200.8868805205861
 20
-101.5820456472645
 30
0.0
  0
SEQEND
  5
225
330
221
100
AcDbEntity
  8
Strichzeichnung
 62
   250
420
  2039073
370
    25
  0
ENDBLK
  5
1F5
330
1F2
100
AcDbEntity
  8
0
100
AcDbBlockEnd
  0
BLOCK
  5
228
330
226
100
AcDbEntity
  8
0
100
AcDbBlockBegin
  2
block 12
 70
     0
 10
0.0
 20
0.0
 30
0.0
  3
block 12
  1

  0
POLYLINE
  5
22A
330
226
100
AcDbEntity
  8
Strichzeichnung
 62
   250
420
  2039073
370
    25
100
AcDb2dPolyline
 66
     1
 10
0.0
 20
0.0
 30
0.0
  0
VERTEX
  5
22B
330
22A
100
AcDbEntity
  8
Strichzeichnung
 62
   250
420
  2039073
370
    25
100
AcDbVertex
100
AcDb2dVertex
 10
196.8756158422484
 20
-17.75767122377616
 30
0.0
  0
VERTEX
  5
22C
330
22A
100
AcDbEntity
  8
Strichzeichnung
 62
   250
420
  2039073
370
    25
100
AcDbVertex
100
AcDb2dVertex
 10
217.4238272624643
 20
-17.757706501554
 30
0.0
  0
SEQEND
  5
22D
330
22A
100
AcDbEntity
  8
Strichzeichnung
 62
   250
420
  2039073
370
    25
  0
POLYLINE
  5
22E
330
226
100
AcDbEntity
  8
Strichzeichnung
 62
   250
420
  2039073
370
    25
100
AcDb2dPolyline
 66
     1
 10
0.0
 20
0.0
 30
0.0
  0
VERTEX
  5
22F
330
22E
100
AcDbEntity
  8
Strichzeichnung
 62
   250
420
  2039073
370
    25
100
AcDbVertex
100
AcDb2dVertex
 10
199.5438537577053
 20
-19.63360233441839
 30
0.0
  0
VERTEX
  5
230
330
22E
100
AcDbEntity
  8
Strichzeichnung
 62
   250
420
  2039073
370
    25
100
AcDbVertex
100
AcDb2dVertex
 10
214.7555926083144
 20
-19.63360233441839
 30
0.0
  0
SEQEND
  5
231
330
22E
100
AcDbEntity
  8
Strichzeichnung
 62
   250
420
  2039073
370
    25
  0
POLYLINE
  5
232
330
226
100
AcDbEntity
  8
Strichzeichnung
 62
   250
420
  2039073
370
    25
100
AcDb2dPolyline
 66
     1
 10
0.0
 20
0.0
 30
0.0
  0
VERTEX
  5
233
330
232
100
AcDbEntity
  8
Strichzeichnung
 62
   250
420
  2039073
370
    25
100
AcDbVertex
100
AcDb2dVertex
 10
199.5438537577053
 20
-26.31944677719114
 30
0.0
  0
VERTEX
  5
234
330
232
100
AcDbEntity
  8
Strichzeichnung
 62
   250
420
  2039073
370
    25
100
AcDbVertex
100
AcDb2dVertex
 10
214.7555926083144
 20
-26.31948205496898
 30
0.0
  0
SEQEND
  5
235
330
232
100
AcDbEntity
  8
Strichzeichnung
 62
   250
420
  2039073
370
    25
  0
POLYLINE
  5
236
330
226
100
AcDbEntity
  8
Strichzeichnung
 62
   250
420
  2039073
370
    25
100
AcDb2dPolyline
 66
     1
 10
0.0
 20
0.0
 30
0.0
  0
VERTEX
  5
237
330
236
100
AcDbEntity
  8
Strichzeichnung
 62
   250
420
  2039073
370
    25
100
AcDbVertex
100
AcDb2dVertex
 10
199.5438537577053
 20
-24.19029177772351
 30
0.0
  0
VERTEX
  5
238
330
236
100
AcDbEntity
  8
Strichzeichnung
 62
   250
420
  2039073
370
    25
100
AcDbVertex
100
AcDb2dVertex
 10
214.7555926083144
 20
-24.19032705550135
 30
0.0
  0
SEQEND
  5
239
330
236
100
AcDbEntity
  8
Strichzeichnung
 62
   250
420
  2039073
370
    25
  0
POLYLINE
  5
23A
330
226
100
AcDbEntity
  8
Strichzeichnung
 62
   250
420
  2039073
370
    25
100
AcDb2dPolyline
 66
     1
 10
0.0
 20
0.0
 30
0.0
  0
VERTEX
  5
23B
330
23A
100
AcDbEntity
  8
Strichzeichnung
 62
   250
420
  2039073
370
    25
100
AcDbVertex
100
AcDb2dVertex
 10
196.8756158422484
 20
-38.35036844085006
 30
0.0
  0
VERTEX
  5
23C
330
23A
100
AcDbEntity
  8
Strichzeichnung
 62
   250
420
  2039073
370
    25
100
AcDbVertex
100
AcDb2dVertex
 10
217.4238272624643
 20
-38.35040371862758
 30
0.0
  0
SEQEND
  5
23D
330
23A
100
AcDbEntity
  8
Strichzeichnung
 62
   250
420
  2039073
370
    25
  0
POLYLINE
  5
23E
330
226
100
AcDbEntity
  8
Strichzeichnung
 62
   250
420
  2039073
370
    25
100
AcDb2dPolyline
 66
     1
 10
0.0
 20
0.0
 30
0.0
  0
VERTEX
  5
23F
330
23E
100
AcDbEntity
  8
Strichzeichnung
 62
   250
420
  2039073
370
    25
100
AcDbVertex
100
AcDb2dVertex
 10
199.5438152186214
 20
-39.03976677401109
 30
0.0
  0
VERTEX
  5
240
330
23E
100
AcDbEntity
  8
Strichzeichnung
 62
   250
420
  2039073
370
    25
100
AcDbVertex
100
AcDb2dVertex
 10
214.7555926083144
 20
-39.03980205178893
 30
0.0
  0
SEQEND
  5
241
330
23E
100
AcDbEntity
  8
Strichzeichnung
 62
   250
420
  2039073
370
    25
  0
POLYLINE
  5
242
330
226
100
AcDbEntity
  8
Strichzeichnung
 62
   250
420
  2039073
370
    25
100
AcDb2dPolyline
 66
     1
 10
0.0
 20
0.0
 30
0.0
  0
VERTEX
  5
243
330
242
100
AcDbEntity
  8
Strichzeichnung
 62
   250
420
  2039073
370
    25
100
AcDbVertex
100
AcDb2dVertex
 10
196.8756158422484
 20
-38.35040371862758
 30
0.0
  0
VERTEX
  5
244
330
242
100
AcDbEntity
  8
Strichzeichnung
 62
   250
420
  2039073
370
    25
100
AcDbVertex
100
AcDb2dVertex
 10
196.8756158422484
 20
-17.75767122377616
 30
0.0
  0
SEQEND
  5
245
330
242
100
AcDbEntity
  8
Strichzeichnung
 62
   250
420
  2039073
370
    25
  0
POLYLINE
  5
246
330
226
100
AcDbEntity
  8
Strichzeichnung
 62
   250
420
  2039073
370
    25
100
AcDb2dPolyline
 66
     1
 10
0.0
 20
0.0
 30
0.0
  0
VERTEX
  5
247
330
246
100
AcDbEntity
  8
Strichzeichnung
 62
   250
420
  2039073
370
    25
100
AcDbVertex
100
AcDb2dVertex
 10
199.5438537577053
 20
-39.03976677401109
 30
0.0
  0
VERTEX
  5
248
330
246
100
AcDbEntity
  8
Strichzeichnung
 62
   250
420
  2039073
370
    25
100
AcDbVertex
100
AcDb2dVertex
 10
199.5438537577053
 20
-17.75767122377616
 30
0.0
  0
SEQEND
  5
249
330
246
100
AcDbEntity
  8
Strichzeichnung
 62
   250
420
  2039073
370
    25
  0
POLYLINE
  5
24A
330
226
100
AcDbEntity
  8
Strichzeichnung
 62
   250
420
  2039073
370
    25
100
AcDb2dPolyline
 66
     1
 10
0.0
 20
0.0
 30
0.0
  0
VERTEX
  5
24B
330
24A
100
AcDbEntity
  8
Strichzeichnung
 62
   250
420
  2039073
370
    25
100
AcDbVertex
100
AcDb2dVertex
 10
214.7555926083144
 20
-39.03980205178893
 30
0.0
  0
VERTEX
  5
24C
330
24A
100
AcDbEntity
  8
Strichzeichnung
 62
   250
420
  2039073
370
    25
100
AcDbVertex
100
AcDb2dVertex
 10
214.7555926083144
 20
-17.75767122377616
 30
0.0
  0
SEQEND
  5
24D
330
24A
100
AcDbEntity
  8
Strichzeichnung
 62
   250
420
  2039073
370
    25
  0
POLYLINE
  5
24E
330
226
100
AcDbEntity
  8
Strichzeichnung
 62
   250
420
  2039073
370
    25
100
AcDb2dPolyline
 66
     1
 10
0.0
 20
0.0
 30
0.0
  0
VERTEX
  5
24F
330
24E
100
AcDbEntity
  8
Strichzeichnung
 62
   250
420
  2039073
370
    25
100
AcDbVertex
100
AcDb2dVertex
 10
217.4238272624643
 20
-38.35040371862758
 30
0.0
  0
VERTEX
  5
250
330
24E
100
AcDbEntity
  8
Strichzeichnung
 62
   250
420
  2039073
370
    25
100
AcDbVertex
100
AcDb2dVertex
 10
217.4238272624643
 20
-17.757706501554
 30
0.0
  0
SEQEND
  5
251
330
24E
100
AcDbEntity
  8
Strichzeichnung
 62
   250
420
  2039073
370
    25
  0
ENDBLK
  5
229
330
226
100
AcDbEntity
  8
0
100
AcDbBlockEnd
  0
BLOCK
  5
255
330
253
100
AcDbEntity
  8
0
100
AcDbBlockBegin
  2
block 13
 70
     0
 10
0.0
 20
0.0
 30
0.0
  3
block 13
  1

  0
SPLINE
  5
257
330
253
100
AcDbEntity
  8
Strichzeichnung
 62
   250
420
  2039073
370
    25
100
AcDbSpline
210
0.0
220
0.0
230
1.0
 70
    11
 71
     3
 72
    32
 73
    28
 74
     0
 42
0.0000000001
 43
0.0000000001
 12
1.0
 22
0.0
 32
0.0
 13
1.0
 23
0.0
 33
0.0
 40
0.0
 40
0.0
 40
0.0
 40
0.0
 40
1.0
 40
1.0
 40
1.0
 40
2.0
 40
2.0
 40
2.0
 40
3.0
 40
3.0
 40
3.0
 40
4.0
 40
4.0
 40
4.0
 40
5.0
 40
5.0
 40
5.0
 40
6.0
 40
6.0
 40
6.0
 40
7.0
 40
7.0
 40
7.0
 40
8.0
 40
8.0
 40
8.0
 40
9.0
 40
9.0
 40
9.0
 40
9.0
 10
239.3253857274543
 20
-153.3421656343247
 30
0.0
 10
239.3253857274543
 20
-153.3421656343247
 30
0.0
 10
239.3253857274543
 20
-162.9690831319179
 30
0.0
 10
239.3253857274543
 20
-162.9690831319179
 30
0.0
 10
239.3253857274543
 20
-163.785798965047
 30
0.0
 10
239.9935820992961
 20
-164.4539953537686
 30
0.0
 10
240.8102626340164
 20
-164.4539953537686
 30
0.0
 10
240.8102626340164
 20
-164.4539953537686
 30
0.0
 10
245.8266970513583
 20
-164.4539953537686
 30
0.0
 10
245.8266970513583
 20
-164.4539953537686
 30
0.0
 10
246.6434077629783
 20
-164.4539953537686
 30
0.0
 10
247.31160413482
 20
-163.785798965047
 30
0.0
 10
247.31160413482
 20
-162.9690831319179
 30
0.0
 10
247.31160413482
 20
-162.9690831319179
 30
0.0
 10
247.31160413482
 20
-147.9791320245541
 30
0.0
 10
247.31160413482
 20
-147.9791320245541
 30
0.0
 10
247.31160413482
 20
-147.1624514692029
 30
0.0
 10
246.6434077629783
 20
-146.4942550804812
 30
0.0
 10
245.8266970513583
 20
-146.4942550804812
 30
0.0
 10
245.8266970513583
 20
-146.4942550804812
 30
0.0
 10
243.3123036812952
 20
-146.4942550804812
 30
0.0
 10
243.3123036812952
 20
-146.4942550804812
 30
0.0
 10
243.3123036812952
 20
-146.4942550804812
 30
0.0
 10
243.3123036812952
 20
-153.3421656343247
 30
0.0
 10
243.3123036812952
 20
-153.3421656343247
 30
0.0
 10
243.3123036812952
 20
-153.3421656343247
 30
0.0
 10
239.3253857274543
 20
-153.3421656343247
 30
0.0
 10
239.3253857274543
 20
-153.3421656343247
 30
0.0
  0
SPLINE
  5
258
330
253
100
AcDbEntity
  8
Strichzeichnung
 62
   250
420
  2039073
370
    25
100
AcDbSpline
210
0.0
220
0.0
230
1.0
 70
    11
 71
     3
 72
    32
 73
    28
 74
     0
 42
0.0000000001
 43
0.0000000001
 12
1.0
 22
0.0
 32
0.0
 13
1.0
 23
0.0
 33
0.0
 40
0.0
 40
0.0
 40
0.0
 40
0.0
 40
1.0
 40
1.0
 40
1.0
 40
2.0
 40
2.0
 40
2.0
 40
3.0
 40
3.0
 40
3.0
 40
4.0
 40
4.0
 40
4.0
 40
5.0
 40
5.0
 40
5.0
 40
6.0
 40
6.0
 40
6.0
 40
7.0
 40
7.0
 40
7.0
 40
8.0
 40
8.0
 40
8.0
 40
9.0
 40
9.0
 40
9.0
 40
9.0
 10
205.0203935470921
 20
-153.3421656343247
 30
0.0
 10
205.0203935470921
 20
-153.3421656343247
 30
0.0
 10
205.0203935470921
 20
-162.9690831319179
 30
0.0
 10
205.0203935470921
 20
-162.9690831319179
 30
0.0
 10
205.0203935470921
 20
-163.785798965047
 30
0.0
 10
204.3521971752503
 20
-164.4539953537686
 30
0.0
 10
203.53551664053
 20
-164.4539953537686
 30
0.0
 10
203.53551664053
 20
-164.4539953537686
 30
0.0
 10
198.5190873240653
 20
-164.4539953537686
 30
0.0
 10
198.5190873240653
 20
-164.4539953537686
 30
0.0
 10
197.7023715115681
 20
-164.4539953537686
 30
0.0
 10
197.0341751397264
 20
-163.785798965047
 30
0.0
 10
197.0341751397264
 20
-162.9690831319179
 30
0.0
 10
197.0341751397264
 20
-162.9690831319179
 30
0.0
 10
197.0341751397264
 20
-147.9791320245541
 30
0.0
 10
197.0341751397264
 20
-147.9791320245541
 30
0.0
 10
197.0341751397264
 20
-147.1624514692029
 30
0.0
 10
197.7023715115681
 20
-146.4942550804812
 30
0.0
 10
198.5190873240653
 20
-146.4942550804812
 30
0.0
 10
198.5190873240653
 20
-146.4942550804812
 30
0.0
 10
201.0334755932512
 20
-146.4942550804812
 30
0.0
 10
201.0334755932512
 20
-146.4942550804812
 30
0.0
 10
201.0334755932512
 20
-146.4942550804812
 30
0.0
 10
201.0334755932512
 20
-153.3421656343247
 30
0.0
 10
201.0334755932512
 20
-153.3421656343247
 30
0.0
 10
201.0334755932512
 20
-153.3421656343247
 30
0.0
 10
205.0203935470921
 20
-153.3421656343247
 30
0.0
 10
205.0203935470921
 20
-153.3421656343247
 30
0.0
  0
POLYLINE
  5
259
330
253
100
AcDbEntity
  8
Strichzeichnung
 62
   250
420
  2039073
370
    25
100
AcDb2dPolyline
 66
     1
 10
0.0
 20
0.0
 30
0.0
  0
VERTEX
  5
25A
330
259
100
AcDbEntity
  8
Strichzeichnung
 62
   250
420
  2039073
370
    25
100
AcDbVertex
100
AcDb2dVertex
 10
222.4712514352169
 20
-166.3197664644134
 30
0.0
  0
VERTEX
  5
25B
330
259
100
AcDbEntity
  8
Strichzeichnung
 62
   250
420
  2039073
370
    25
100
AcDbVertex
100
AcDb2dVertex
 10
222.4712514352169
 20
-146.4942550804812
 30
0.0
  0
SEQEND
  5
25C
330
259
100
AcDbEntity
  8
Strichzeichnung
 62
   250
420
  2039073
370
    25
  0
POLYLINE
  5
25D
330
253
100
AcDbEntity
  8
Strichzeichnung
 62
   250
420
  2039073
370
    25
100
AcDb2dPolyline
 66
     1
 10
0.0
 20
0.0
 30
0.0
  0
VERTEX
  5
25E
330
25D
100
AcDbEntity
  8
Strichzeichnung
 62
   250
420
  2039073
370
    25
100
AcDbVertex
100
AcDb2dVertex
 10
245.8089119509347
 20
-146.48462424715
 30
0.0
  0
VERTEX
  5
25F
330
25D
100
AcDbEntity
  8
Strichzeichnung
 62
   250
420
  2039073
370
    25
100
AcDbVertex
100
AcDb2dVertex
 10
245.8089119509347
 20
-144.6165600809504
 30
0.0
  0
VERTEX
  5
260
330
25D
100
AcDbEntity
  8
Strichzeichnung
 62
   250
420
  2039073
370
    25
100
AcDbVertex
100
AcDb2dVertex
 10
245.8021386177742
 20
-144.6165600809504
 30
0.0
  0
VERTEX
  5
261
330
25D
100
AcDbEntity
  8
Strichzeichnung
 62
   250
420
  2039073
370
    25
100
AcDbVertex
100
AcDb2dVertex
 10
198.5369026013886
 20
-144.6165600809504
 30
0.0
  0
VERTEX
  5
262
330
25D
100
AcDbEntity
  8
Strichzeichnung
 62
   250
420
  2039073
370
    25
100
AcDbVertex
100
AcDb2dVertex
 10
198.5369378791655
 20
-146.4946784138143
 30
0.0
  0
SEQEND
  5
263
330
25D
100
AcDbEntity
  8
Strichzeichnung
 62
   250
420
  2039073
370
    25
  0
POLYLINE
  5
264
330
253
100
AcDbEntity
  8
Strichzeichnung
 62
   250
420
  2039073
370
    25
100
AcDb2dPolyline
 66
     1
 10
0.0
 20
0.0
 30
0.0
  0
VERTEX
  5
265
330
264
100
AcDbEntity
  8
Strichzeichnung
 62
   250
420
  2039073
370
    25
100
AcDbVertex
100
AcDb2dVertex
 10
243.3184772922488
 20
-165.2284836869085
 30
0.0
  0
VERTEX
  5
266
330
264
100
AcDbEntity
  8
Strichzeichnung
 62
   250
420
  2039073
370
    25
100
AcDbVertex
100
AcDb2dVertex
 10
245.8089119509347
 20
-165.2284484091307
 30
0.0
  0
VERTEX
  5
267
330
264
100
AcDbEntity
  8
Strichzeichnung
 62
   250
420
  2039073
370
    25
100
AcDbVertex
100
AcDb2dVertex
 10
245.8089119509347
 20
-165.2284836869085
 30
0.0
  0
VERTEX
  5
268
330
264
100
AcDbEntity
  8
Strichzeichnung
 62
   250
420
  2039073
370
    25
100
AcDbVertex
100
AcDb2dVertex
 10
245.8089119509347
 20
-164.3781834093431
 30
0.0
  0
SEQEND
  5
269
330
264
100
AcDbEntity
  8
Strichzeichnung
 62
   250
420
  2039073
370
    25
  0
POLYLINE
  5
26A
330
253
100
AcDbEntity
  8
Strichzeichnung
 62
   250
420
  2039073
370
    25
100
AcDb2dPolyline
 66
     1
 10
0.0
 20
0.0
 30
0.0
  0
VERTEX
  5
26B
330
26A
100
AcDbEntity
  8
Strichzeichnung
 62
   250
420
  2039073
370
    25
100
AcDbVertex
100
AcDb2dVertex
 10
201.0273372600745
 20
-146.4942550804812
 30
0.0
  0
VERTEX
  5
26C
330
26A
100
AcDbEntity
  8
Strichzeichnung
 62
   250
420
  2039073
370
    25
100
AcDbVertex
100
AcDb2dVertex
 10
243.3122684035183
 20
-146.4942550804812
 30
0.0
  0
SEQEND
  5
26D
330
26A
100
AcDbEntity
  8
Strichzeichnung
 62
   250
420
  2039073
370
    25
  0
SPLINE
  5
26E
330
253
100
AcDbEntity
  8
Strichzeichnung
 62
   250
420
  2039073
370
    25
100
AcDbSpline
210
0.0
220
0.0
230
1.0
 70
     8
 71
     3
 72
    11
 73
     7
 74
     0
 42
0.0000000001
 43
0.0000000001
 12
1.0
 22
0.0
 32
0.0
 13
1.0
 23
0.0
 33
0.0
 40
0.0
 40
0.0
 40
0.0
 40
0.0
 40
1.0
 40
1.0
 40
1.0
 40
2.0
 40
2.0
 40
2.0
 40
2.0
 10
201.0273372600745
 20
-144.6165600809504
 30
0.0
 10
201.0273372600745
 20
-144.6165600809504
 30
0.0
 10
201.0273372600745
 20
-150.6330439683354
 30
0.0
 10
201.0273019822976
 20
-150.6330439683354
 30
0.0
 10
201.0273019822976
 20
-150.6330439683354
 30
0.0
 10
243.3122684035183
 20
-150.6330086905572
 30
0.0
 10
243.3122684035183
 20
-150.6330086905572
 30
0.0
  0
POLYLINE
  5
26F
330
253
100
AcDbEntity
  8
Strichzeichnung
 62
   250
420
  2039073
370
    25
100
AcDb2dPolyline
 66
     1
 10
0.0
 20
0.0
 30
0.0
  0
VERTEX
  5
270
330
26F
100
AcDbEntity
  8
Strichzeichnung
 62
   250
420
  2039073
370
    25
100
AcDbVertex
100
AcDb2dVertex
 10
243.3185125700256
 20
-164.4539953537686
 30
0.0
  0
VERTEX
  5
271
330
26F
100
AcDbEntity
  8
Strichzeichnung
 62
   250
420
  2039073
370
    25
100
AcDbVertex
100
AcDb2dVertex
 10
243.3184772922488
 20
-166.3197664644134
 30
0.0
  0
VERTEX
  5
272
330
26F
100
AcDbEntity
  8
Strichzeichnung
 62
   250
420
  2039073
370
    25
100
AcDbVertex
100
AcDb2dVertex
 10
201.0273372600745
 20
-166.3197664644134
 30
0.0
  0
VERTEX
  5
273
330
26F
100
AcDbEntity
  8
Strichzeichnung
 62
   250
420
  2039073
370
    25
100
AcDbVertex
100
AcDb2dVertex
 10
201.0273372600745
 20
-166.1232692422404
 30
0.0
  0
VERTEX
  5
274
330
26F
100
AcDbEntity
  8
Strichzeichnung
 62
   250
420
  2039073
370
    25
100
AcDbVertex
100
AcDb2dVertex
 10
201.0273372600745
 20
-164.3781481315656
 30
0.0
  0
SEQEND
  5
275
330
26F
100
AcDbEntity
  8
Strichzeichnung
 62
   250
420
  2039073
370
    25
  0
POLYLINE
  5
276
330
253
100
AcDbEntity
  8
Strichzeichnung
 62
   250
420
  2039073
370
    25
100
AcDb2dPolyline
 66
     1
 10
0.0
 20
0.0
 30
0.0
  0
VERTEX
  5
277
330
276
100
AcDbEntity
  8
Strichzeichnung
 62
   250
420
  2039073
370
    25
100
AcDbVertex
100
AcDb2dVertex
 10
241.5086567828656
 20
-153.3421656343247
 30
0.0
  0
VERTEX
  5
278
330
276
100
AcDbEntity
  8
Strichzeichnung
 62
   250
420
  2039073
370
    25
100
AcDbVertex
100
AcDb2dVertex
 10
203.2113138710233
 20
-153.3421656343247
 30
0.0
  0
SEQEND
  5
279
330
276
100
AcDbEntity
  8
Strichzeichnung
 62
   250
420
  2039073
370
    25
  0
POLYLINE
  5
27A
330
253
100
AcDbEntity
  8
Strichzeichnung
 62
   250
420
  2039073
370
    25
100
AcDb2dPolyline
 66
     1
 10
0.0
 20
0.0
 30
0.0
  0
VERTEX
  5
27B
330
27A
100
AcDbEntity
  8
Strichzeichnung
 62
   250
420
  2039073
370
    25
100
AcDbVertex
100
AcDb2dVertex
 10
243.3184772922488
 20
-144.6165600809504
 30
0.0
  0
VERTEX
  5
27C
330
27A
100
AcDbEntity
  8
Strichzeichnung
 62
   250
420
  2039073
370
    25
100
AcDbVertex
100
AcDb2dVertex
 10
243.3184772922488
 20
-150.6330439683354
 30
0.0
  0
SEQEND
  5
27D
330
27A
100
AcDbEntity
  8
Strichzeichnung
 62
   250
420
  2039073
370
    25
  0
POLYLINE
  5
27E
330
253
100
AcDbEntity
  8
Strichzeichnung
 62
   250
420
  2039073
370
    25
100
AcDb2dPolyline
 66
     1
 10
0.0
 20
0.0
 30
0.0
  0
VERTEX
  5
27F
330
27E
100
AcDbEntity
  8
Strichzeichnung
 62
   250
420
  2039073
370
    25
100
AcDbVertex
100
AcDb2dVertex
 10
198.5369026013886
 20
-164.4539953537686
 30
0.0
  0
VERTEX
  5
280
330
27E
100
AcDbEntity
  8
Strichzeichnung
 62
   250
420
  2039073
370
    25
100
AcDbVertex
100
AcDb2dVertex
 10
198.5368673236117
 20
-165.2284836869085
 30
0.0
  0
VERTEX
  5
281
330
27E
100
AcDbEntity
  8
Strichzeichnung
 62
   250
420
  2039073
370
    25
100
AcDbVertex
100
AcDb2dVertex
 10
201.0273019822976
 20
-165.2284484091307
 30
0.0
  0
SEQEND
  5
282
330
27E
100
AcDbEntity
  8
Strichzeichnung
 62
   250
420
  2039073
370
    25
  0
ENDBLK
  5
256
330
253
100
AcDbEntity
  8
0
100
AcDbBlockEnd
  0
BLOCK
  5
285
330
283
100
AcDbEntity
  8
0
100
AcDbBlockBegin
  2
block 14
 70
     0
 10
0.0
 20
0.0
 30
0.0
  3
block 14
  1

  0
SPLINE
  5
287
330
283
100
AcDbEntity
  8
Strichzeichnung
 62
   250
420
  2039073
370
    25
100
AcDbSpline
210
0.0
220
0.0
230
1.0
 70
    11
 71
     3
 72
    32
 73
    28
 74
     0
 42
0.0000000001
 43
0.0000000001
 12
1.0
 22
0.0
 32
0.0
 13
1.0
 23
0.0
 33
0.0
 40
0.0
 40
0.0
 40
0.0
 40
0.0
 40
1.0
 40
1.0
 40
1.0
 40
2.0
 40
2.0
 40
2.0
 40
3.0
 40
3.0
 40
3.0
 40
4.0
 40
4.0
 40
4.0
 40
5.0
 40
5.0
 40
5.0
 40
6.0
 40
6.0
 40
6.0
 40
7.0
 40
7.0
 40
7.0
 40
8.0
 40
8.0
 40
8.0
 40
9.0
 40
9.0
 40
9.0
 40
9.0
 10
246.9102888493093
 20
-216.7698814518009
 30
0.0
 10
246.9102888493093
 20
-216.7698814518009
 30
0.0
 10
246.9102888493093
 20
-226.3968342271725
 30
0.0
 10
246.9102888493093
 20
-226.3968342271725
 30
0.0
 10
246.9102888493093
 20
-227.2135147825231
 30
0.0
 10
247.5784852211511
 20
-227.8817111712458
 30
0.0
 10
248.3951657558714
 20
-227.8817111712458
 30
0.0
 10
248.3951657558714
 20
-227.8817111712458
 30
0.0
 10
253.4116303501129
 20
-227.8817111712458
 30
0.0
 10
253.4116303501129
 20
-227.8817111712458
 30
0.0
 10
254.2283108848332
 20
-227.8817111712458
 30
0.0
 10
254.896507256675
 20
-227.2135147825231
 30
0.0
 10
254.896507256675
 20
-226.3968342271725
 30
0.0
 10
254.896507256675
 20
-226.3968342271725
 30
0.0
 10
254.896507256675
 20
-211.4068831198084
 30
0.0
 10
254.896507256675
 20
-211.4068831198084
 30
0.0
 10
254.896507256675
 20
-210.5901672866794
 30
0.0
 10
254.2283108848332
 20
-209.921970897957
 30
0.0
 10
253.4116303501129
 20
-209.921970897957
 30
0.0
 10
253.4116303501129
 20
-209.921970897957
 30
0.0
 10
250.8972068031501
 20
-209.921970897957
 30
0.0
 10
250.8972068031501
 20
-209.921970897957
 30
0.0
 10
250.8972068031501
 20
-209.921970897957
 30
0.0
 10
250.8972068031501
 20
-216.7699167295785
 30
0.0
 10
250.8972068031501
 20
-216.7699167295785
 30
0.0
 10
250.8972068031501
 20
-216.7699167295785
 30
0.0
 10
246.9102888493093
 20
-216.7698814518009
 30
0.0
 10
246.9102888493093
 20
-216.7698814518009
 30
0.0
  0
SPLINE
  5
288
330
283
100
AcDbEntity
  8
Strichzeichnung
 62
   250
420
  2039073
370
    25
100
AcDbSpline
210
0.0
220
0.0
230
1.0
 70
    11
 71
     3
 72
    32
 73
    28
 74
     0
 42
0.0000000001
 43
0.0000000001
 12
1.0
 22
0.0
 32
0.0
 13
1.0
 23
0.0
 33
0.0
 40
0.0
 40
0.0
 40
0.0
 40
0.0
 40
1.0
 40
1.0
 40
1.0
 40
2.0
 40
2.0
 40
2.0
 40
3.0
 40
3.0
 40
3.0
 40
4.0
 40
4.0
 40
4.0
 40
5.0
 40
5.0
 40
5.0
 40
6.0
 40
6.0
 40
6.0
 40
7.0
 40
7.0
 40
7.0
 40
8.0
 40
8.0
 40
8.0
 40
9.0
 40
9.0
 40
9.0
 40
9.0
 10
205.0145421403811
 20
-216.7698814518009
 30
0.0
 10
205.0145421403811
 20
-216.7698814518009
 30
0.0
 10
205.0145421403811
 20
-226.3968342271725
 30
0.0
 10
205.0145421403811
 20
-226.3968342271725
 30
0.0
 10
205.0145421403811
 20
-227.2135147825231
 30
0.0
 10
204.3463457685393
 20
-227.8817111712458
 30
0.0
 10
203.529665233819
 20
-227.8817111712458
 30
0.0
 10
203.529665233819
 20
-227.8817111712458
 30
0.0
 10
198.5132359173543
 20
-227.8817111712458
 30
0.0
 10
198.5132359173543
 20
-227.8817111712458
 30
0.0
 10
197.696555382634
 20
-227.8817111712458
 30
0.0
 10
197.0283590107923
 20
-227.2135147825231
 30
0.0
 10
197.0283590107923
 20
-226.3968342271725
 30
0.0
 10
197.0283590107923
 20
-226.3968342271725
 30
0.0
 10
197.0283590107923
 20
-211.4068831198084
 30
0.0
 10
197.0283590107923
 20
-211.4068831198084
 30
0.0
 10
197.0283590107923
 20
-210.5901672866794
 30
0.0
 10
197.696555382634
 20
-209.921970897957
 30
0.0
 10
198.5132359173543
 20
-209.921970897957
 30
0.0
 10
198.5132359173543
 20
-209.921970897957
 30
0.0
 10
201.0276594643172
 20
-209.921970897957
 30
0.0
 10
201.0276594643172
 20
-209.921970897957
 30
0.0
 10
201.0276594643172
 20
-209.921970897957
 30
0.0
 10
201.0276594643172
 20
-216.7699167295785
 30
0.0
 10
201.0276594643172
 20
-216.7699167295785
 30
0.0
 10
201.0276594643172
 20
-216.7699167295785
 30
0.0
 10
205.0145421403811
 20
-216.7698814518009
 30
0.0
 10
205.0145421403811
 20
-216.7698814518009
 30
0.0
  0
POLYLINE
  5
289
330
283
100
AcDbEntity
  8
Strichzeichnung
 62
   250
420
  2039073
370
    25
100
AcDb2dPolyline
 66
     1
 10
0.0
 20
0.0
 30
0.0
  0
VERTEX
  5
28A
330
289
100
AcDbEntity
  8
Strichzeichnung
 62
   250
420
  2039073
370
    25
100
AcDbVertex
100
AcDb2dVertex
 10
226.0846882695035
 20
-229.7474822818896
 30
0.0
  0
VERTEX
  5
28B
330
289
100
AcDbEntity
  8
Strichzeichnung
 62
   250
420
  2039073
370
    25
100
AcDbVertex
100
AcDb2dVertex
 10
226.0846882695035
 20
-209.9220061757352
 30
0.0
  0
SEQEND
  5
28C
330
289
100
AcDbEntity
  8
Strichzeichnung
 62
   250
420
  2039073
370
    25
  0
POLYLINE
  5
28D
330
283
100
AcDbEntity
  8
Strichzeichnung
 62
   250
420
  2039073
370
    25
100
AcDb2dPolyline
 66
     1
 10
0.0
 20
0.0
 30
0.0
  0
VERTEX
  5
28E
330
28D
100
AcDbEntity
  8
Strichzeichnung
 62
   250
420
  2039073
370
    25
100
AcDbVertex
100
AcDb2dVertex
 10
253.2756345202492
 20
-209.9123753424044
 30
0.0
  0
VERTEX
  5
28F
330
28D
100
AcDbEntity
  8
Strichzeichnung
 62
   250
420
  2039073
370
    25
100
AcDbVertex
100
AcDb2dVertex
 10
253.2756345202492
 20
-208.0443111762051
 30
0.0
  0
VERTEX
  5
290
330
28D
100
AcDbEntity
  8
Strichzeichnung
 62
   250
420
  2039073
370
    25
100
AcDbVertex
100
AcDb2dVertex
 10
253.2677675760054
 20
-208.0443111762051
 30
0.0
  0
VERTEX
  5
291
330
28D
100
AcDbEntity
  8
Strichzeichnung
 62
   250
420
  2039073
370
    25
100
AcDbVertex
100
AcDb2dVertex
 10
198.5310864724545
 20
-208.0443111762051
 30
0.0
  0
VERTEX
  5
292
330
28D
100
AcDbEntity
  8
Strichzeichnung
 62
   250
420
  2039073
370
    25
100
AcDbVertex
100
AcDb2dVertex
 10
198.5310864724545
 20
-209.9224295090686
 30
0.0
  0
SEQEND
  5
293
330
28D
100
AcDbEntity
  8
Strichzeichnung
 62
   250
420
  2039073
370
    25
  0
POLYLINE
  5
294
330
283
100
AcDbEntity
  8
Strichzeichnung
 62
   250
420
  2039073
370
    25
100
AcDb2dPolyline
 66
     1
 10
0.0
 20
0.0
 30
0.0
  0
VERTEX
  5
295
330
294
100
AcDbEntity
  8
Strichzeichnung
 62
   250
420
  2039073
370
    25
100
AcDbVertex
100
AcDb2dVertex
 10
250.9034156918806
 20
-228.6561995043847
 30
0.0
  0
VERTEX
  5
296
330
294
100
AcDbEntity
  8
Strichzeichnung
 62
   250
420
  2039073
370
    25
100
AcDbVertex
100
AcDb2dVertex
 10
253.3938150727897
 20
-228.6561995043847
 30
0.0
  0
VERTEX
  5
297
330
294
100
AcDbEntity
  8
Strichzeichnung
 62
   250
420
  2039073
370
    25
100
AcDbVertex
100
AcDb2dVertex
 10
253.3938150727897
 20
-228.6561995043847
 30
0.0
  0
VERTEX
  5
298
330
294
100
AcDbEntity
  8
Strichzeichnung
 62
   250
420
  2039073
370
    25
100
AcDbVertex
100
AcDb2dVertex
 10
253.3938150727897
 20
-227.8059345045972
 30
0.0
  0
SEQEND
  5
299
330
294
100
AcDbEntity
  8
Strichzeichnung
 62
   250
420
  2039073
370
    25
  0
POLYLINE
  5
29A
330
283
100
AcDbEntity
  8
Strichzeichnung
 62
   250
420
  2039073
370
    25
100
AcDb2dPolyline
 66
     1
 10
0.0
 20
0.0
 30
0.0
  0
VERTEX
  5
29B
330
29A
100
AcDbEntity
  8
Strichzeichnung
 62
   250
420
  2039073
370
    25
100
AcDbVertex
100
AcDb2dVertex
 10
201.0215211311404
 20
-209.921970897957
 30
0.0
  0
VERTEX
  5
29C
330
29A
100
AcDbEntity
  8
Strichzeichnung
 62
   250
420
  2039073
370
    25
100
AcDbVertex
100
AcDb2dVertex
 10
250.8949137476531
 20
-209.921970897957
 30
0.0
  0
SEQEND
  5
29D
330
29A
100
AcDbEntity
  8
Strichzeichnung
 62
   250
420
  2039073
370
    25
  0
POLYLINE
  5
29E
330
283
100
AcDbEntity
  8
Strichzeichnung
 62
   250
420
  2039073
370
    25
100
AcDb2dPolyline
 66
     1
 10
0.0
 20
0.0
 30
0.0
  0
VERTEX
  5
29F
330
29E
100
AcDbEntity
  8
Strichzeichnung
 62
   250
420
  2039073
370
    25
100
AcDbVertex
100
AcDb2dVertex
 10
201.0215211311404
 20
-208.0443111762051
 30
0.0
  0
VERTEX
  5
2A0
330
29E
100
AcDbEntity
  8
Strichzeichnung
 62
   250
420
  2039073
370
    25
100
AcDbVertex
100
AcDb2dVertex
 10
201.0214505755867
 20
-214.0607597858112
 30
0.0
  0
VERTEX
  5
2A1
330
29E
100
AcDbEntity
  8
Strichzeichnung
 62
   250
420
  2039073
370
    25
100
AcDbVertex
100
AcDb2dVertex
 10
250.8948838636531
 20
-214.0607597858112
 30
0.0
  0
SEQEND
  5
2A2
330
29E
100
AcDbEntity
  8
Strichzeichnung
 62
   250
420
  2039073
370
    25
  0
POLYLINE
  5
2A3
330
283
100
AcDbEntity
  8
Strichzeichnung
 62
   250
420
  2039073
370
    25
100
AcDb2dPolyline
 66
     1
 10
0.0
 20
0.0
 30
0.0
  0
VERTEX
  5
2A4
330
2A3
100
AcDbEntity
  8
Strichzeichnung
 62
   250
420
  2039073
370
    25
100
AcDbVertex
100
AcDb2dVertex
 10
250.9034156918806
 20
-227.8817111712458
 30
0.0
  0
VERTEX
  5
2A5
330
2A3
100
AcDbEntity
  8
Strichzeichnung
 62
   250
420
  2039073
370
    25
100
AcDbVertex
100
AcDb2dVertex
 10
250.9033804141037
 20
-229.7474822818896
 30
0.0
  0
VERTEX
  5
2A6
330
2A3
100
AcDbEntity
  8
Strichzeichnung
 62
   250
420
  2039073
370
    25
100
AcDbVertex
100
AcDb2dVertex
 10
201.0214858533635
 20
-229.7475175596677
 30
0.0
  0
VERTEX
  5
2A7
330
2A3
100
AcDbEntity
  8
Strichzeichnung
 62
   250
420
  2039073
370
    25
100
AcDbVertex
100
AcDb2dVertex
 10
201.0214858533635
 20
-229.5510203374944
 30
0.0
  0
VERTEX
  5
2A8
330
2A3
100
AcDbEntity
  8
Strichzeichnung
 62
   250
420
  2039073
370
    25
100
AcDbVertex
100
AcDb2dVertex
 10
201.0214858533635
 20
-227.8058639490421
 30
0.0
  0
SEQEND
  5
2A9
330
2A3
100
AcDbEntity
  8
Strichzeichnung
 62
   250
420
  2039073
370
    25
  0
POLYLINE
  5
2AA
330
283
100
AcDbEntity
  8
Strichzeichnung
 62
   250
420
  2039073
370
    25
100
AcDb2dPolyline
 66
     1
 10
0.0
 20
0.0
 30
0.0
  0
VERTEX
  5
2AB
330
2AA
100
AcDbEntity
  8
Strichzeichnung
 62
   250
420
  2039073
370
    25
100
AcDbVertex
100
AcDb2dVertex
 10
249.4307096183414
 20
-216.7699167295785
 30
0.0
  0
VERTEX
  5
2AC
330
2AA
100
AcDbEntity
  8
Strichzeichnung
 62
   250
420
  2039073
370
    25
100
AcDbVertex
100
AcDb2dVertex
 10
203.2054977420892
 20
-216.7699167295785
 30
0.0
  0
SEQEND
  5
2AD
330
2AA
100
AcDbEntity
  8
Strichzeichnung
 62
   250
420
  2039073
370
    25
  0
POLYLINE
  5
2AE
330
283
100
AcDbEntity
  8
Strichzeichnung
 62
   250
420
  2039073
370
    25
100
AcDb2dPolyline
 66
     1
 10
0.0
 20
0.0
 30
0.0
  0
VERTEX
  5
2AF
330
2AE
100
AcDbEntity
  8
Strichzeichnung
 62
   250
420
  2039073
370
    25
100
AcDbVertex
100
AcDb2dVertex
 10
250.8949137476531
 20
-208.0443111762051
 30
0.0
  0
VERTEX
  5
2B0
330
2AE
100
AcDbEntity
  8
Strichzeichnung
 62
   250
420
  2039073
370
    25
100
AcDbVertex
100
AcDb2dVertex
 10
250.8949137476531
 20
-214.0607597858112
 30
0.0
  0
SEQEND
  5
2B1
330
2AE
100
AcDbEntity
  8
Strichzeichnung
 62
   250
420
  2039073
370
    25
  0
POLYLINE
  5
2B2
330
283
100
AcDbEntity
  8
Strichzeichnung
 62
   250
420
  2039073
370
    25
100
AcDb2dPolyline
 66
     1
 10
0.0
 20
0.0
 30
0.0
  0
VERTEX
  5
2B3
330
2B2
100
AcDbEntity
  8
Strichzeichnung
 62
   250
420
  2039073
370
    25
100
AcDbVertex
100
AcDb2dVertex
 10
198.5310864724545
 20
-227.8817111712458
 30
0.0
  0
VERTEX
  5
2B4
330
2B2
100
AcDbEntity
  8
Strichzeichnung
 62
   250
420
  2039073
370
    25
100
AcDbVertex
100
AcDb2dVertex
 10
198.5310511946776
 20
-228.6561995043847
 30
0.0
  0
VERTEX
  5
2B5
330
2B2
100
AcDbEntity
  8
Strichzeichnung
 62
   250
420
  2039073
370
    25
100
AcDbVertex
100
AcDb2dVertex
 10
201.0214505755867
 20
-228.6561995043847
 30
0.0
  0
SEQEND
  5
2B6
330
2B2
100
AcDbEntity
  8
Strichzeichnung
 62
   250
420
  2039073
370
    25
  0
ENDBLK
  5
286
330
283
100
AcDbEntity
  8
0
100
AcDbBlockEnd
  0
BLOCK
  5
2B9
330
2B7
100
AcDbEntity
  8
0
100
AcDbBlockBegin
  2
block 15
 70
     0
 10
0.0
 20
0.0
 30
0.0
  3
block 15
  1

  0
SPLINE
  5
2BB
330
2B7
100
AcDbEntity
  8
Strichzeichnung
 62
   250
420
  2039073
370
    25
100
AcDbSpline
210
0.0
220
0.0
230
1.0
 70
     8
 71
     3
 72
    14
 73
    10
 74
     0
 42
0.0000000001
 43
0.0000000001
 12
1.0
 22
0.0
 32
0.0
 13
1.0
 23
0.0
 33
0.0
 40
0.0
 40
0.0
 40
0.0
 40
0.0
 40
1.0
 40
1.0
 40
1.0
 40
2.0
 40
2.0
 40
2.0
 40
3.0
 40
3.0
 40
3.0
 40
3.0
 10
122.8517774918317
 20
-149.6260750796978
 30
0.0
 10
122.6823030517109
 20
-148.9196375798746
 30
0.0
 10
122.4521886072529
 20
-148.163282024508
 30
0.0
 10
122.1411066766291
 20
-147.3772931358153
 30
0.0
 10
121.856661961664
 20
-146.6584731359955
 30
0.0
 10
118.9694228686566
 20
-147.200727858082
 30
0.0
 10
118.7276642637132
 20
-147.4328556358018
 30
0.0
 10
118.4863289920924
 20
-147.6652303579659
 30
0.0
 10
118.6523462100792
 20
-152.8210775788991
 30
0.0
 10
118.6523462100792
 20
-153.0270645232923
 30
0.0
  0
POLYLINE
  5
2BC
330
2B7
100
AcDbEntity
  8
Strichzeichnung
 62
   250
420
  2039073
370
    25
100
AcDb2dPolyline
 66
     1
 10
0.0
 20
0.0
 30
0.0
  0
VERTEX
  5
2BD
330
2BC
100
AcDbEntity
  8
Strichzeichnung
 62
   250
420
  2039073
370
    25
100
AcDbVertex
100
AcDb2dVertex
 10
137.3595191590818
 20
-153.1480320232619
 30
0.0
  0
VERTEX
  5
2BE
330
2BC
100
AcDbEntity
  8
Strichzeichnung
 62
   250
420
  2039073
370
    25
100
AcDbVertex
100
AcDb2dVertex
 10
137.3595191590818
 20
-163.8850706316887
 30
0.0
  0
VERTEX
  5
2BF
330
2BC
100
AcDbEntity
  8
Strichzeichnung
 62
   250
420
  2039073
370
    25
100
AcDbVertex
100
AcDb2dVertex
 10
116.7476284808948
 20
-163.8851059094666
 30
0.0
  0
VERTEX
  5
2C0
330
2BC
100
AcDbEntity
  8
Strichzeichnung
 62
   250
420
  2039073
370
    25
100
AcDbVertex
100
AcDb2dVertex
 10
116.7476284808948
 20
-153.1480673010397
 30
0.0
  0
VERTEX
  5
2C1
330
2BC
100
AcDbEntity
  8
Strichzeichnung
 62
   250
420
  2039073
370
    25
100
AcDbVertex
100
AcDb2dVertex
 10
137.3595191590818
 20
-153.1480320232619
 30
0.0
  0
SEQEND
  5
2C2
330
2BC
100
AcDbEntity
  8
Strichzeichnung
 62
   250
420
  2039073
370
    25
  0
POLYLINE
  5
2C3
330
2B7
100
AcDbEntity
  8
Strichzeichnung
 62
   250
420
  2039073
370
    25
100
AcDb2dPolyline
 66
     1
 10
0.0
 20
0.0
 30
0.0
  0
VERTEX
  5
2C4
330
2C3
100
AcDbEntity
  8
Strichzeichnung
 62
   250
420
  2039073
370
    25
100
AcDbVertex
100
AcDb2dVertex
 10
137.1769890708102
 20
-163.8850706316887
 30
0.0
  0
VERTEX
  5
2C5
330
2C3
100
AcDbEntity
  8
Strichzeichnung
 62
   250
420
  2039073
370
    25
100
AcDbVertex
100
AcDb2dVertex
 10
137.0929574062873
 20
-166.2535500755412
 30
0.0
  0
VERTEX
  5
2C6
330
2C3
100
AcDbEntity
  8
Strichzeichnung
 62
   250
420
  2039073
370
    25
100
AcDbVertex
100
AcDb2dVertex
 10
135.2814082858371
 20
-166.2535500755412
 30
0.0
  0
VERTEX
  5
2C7
330
2C3
100
AcDbEntity
  8
Strichzeichnung
 62
   250
420
  2039073
370
    25
100
AcDbVertex
100
AcDb2dVertex
 10
135.2103588432053
 20
-163.8850706316887
 30
0.0
  0
SEQEND
  5
2C8
330
2C3
100
AcDbEntity
  8
Strichzeichnung
 62
   250
420
  2039073
370
    25
  0
POLYLINE
  5
2C9
330
2B7
100
AcDbEntity
  8
Strichzeichnung
 62
   250
420
  2039073
370
    25
100
AcDb2dPolyline
 66
     1
 10
0.0
 20
0.0
 30
0.0
  0
VERTEX
  5
2CA
330
2C9
100
AcDbEntity
  8
Strichzeichnung
 62
   250
420
  2039073
370
    25
100
AcDbVertex
100
AcDb2dVertex
 10
118.8717739822589
 20
-163.8851059094666
 30
0.0
  0
VERTEX
  5
2CB
330
2C9
100
AcDbEntity
  8
Strichzeichnung
 62
   250
420
  2039073
370
    25
100
AcDbVertex
100
AcDb2dVertex
 10
118.7875330526136
 20
-166.2535500755412
 30
0.0
  0
VERTEX
  5
2CC
330
2C9
100
AcDbEntity
  8
Strichzeichnung
 62
   250
420
  2039073
370
    25
100
AcDbVertex
100
AcDb2dVertex
 10
116.9762284750628
 20
-166.2535500755412
 30
0.0
  0
VERTEX
  5
2CD
330
2C9
100
AcDbEntity
  8
Strichzeichnung
 62
   250
420
  2039073
370
    25
100
AcDbVertex
100
AcDb2dVertex
 10
116.9049320879928
 20
-163.8851059094666
 30
0.0
  0
SEQEND
  5
2CE
330
2C9
100
AcDbEntity
  8
Strichzeichnung
 62
   250
420
  2039073
370
    25
  0
SPLINE
  5
2CF
330
2B7
100
AcDbEntity
  8
Strichzeichnung
 62
   250
420
  2039073
370
    25
100
AcDbSpline
210
0.0
220
0.0
230
1.0
 70
     8
 71
     3
 72
    14
 73
    10
 74
     0
 42
0.0000000001
 43
0.0000000001
 12
1.0
 22
0.0
 32
0.0
 13
1.0
 23
0.0
 33
0.0
 40
0.0
 40
0.0
 40
0.0
 40
0.0
 40
1.0
 40
1.0
 40
1.0
 40
2.0
 40
2.0
 40
2.0
 40
3.0
 40
3.0
 40
3.0
 40
3.0
 10
137.3595191590818
 20
-155.03193591168
 30
0.0
 10
137.7816501664951
 20
-155.03193591168
 30
0.0
 10
138.0497612707661
 20
-155.3291511893834
 30
0.0
 10
138.0497612707661
 20
-155.3291511893834
 30
0.0
 10
138.0497612707661
 20
-155.3291511893834
 30
0.0
 10
138.0497612707661
 20
-159.1160795217699
 30
0.0
 10
138.0497612707661
 20
-159.1160795217699
 30
0.0
 10
138.0497612707661
 20
-159.1160795217699
 30
0.0
 10
137.8024287770761
 20
-159.5683759105459
 30
0.0
 10
137.3595191590818
 20
-159.5941992438727
 30
0.0
  0
SPLINE
  5
2D0
330
2B7
100
AcDbEntity
  8
Strichzeichnung
 62
   250
420
  2039073
370
    25
100
AcDbSpline
210
0.0
220
0.0
230
1.0
 70
     8
 71
     3
 72
    26
 73
    22
 74
     0
 42
0.0000000001
 43
0.0000000001
 12
1.0
 22
0.0
 32
0.0
 13
1.0
 23
0.0
 33
0.0
 40
0.0
 40
0.0
 40
0.0
 40
0.0
 40
1.0
 40
1.0
 40
1.0
 40
2.0
 40
2.0
 40
2.0
 40
3.0
 40
3.0
 40
3.0
 40
4.0
 40
4.0
 40
4.0
 40
5.0
 40
5.0
 40
5.0
 40
6.0
 40
6.0
 40
6.0
 40
7.0
 40
7.0
 40
7.0
 40
7.0
 10
135.9202535473166
 20
-153.1480320232619
 30
0.0
 10
136.3287024926734
 20
-153.1480320232619
 30
0.0
 10
136.5327815872453
 20
-152.886306189994
 30
0.0
 10
136.5667540863786
 20
-152.684623134489
 30
0.0
 10
136.6006941592723
 20
-152.4827989678727
 30
0.0
 10
136.6877568610693
 20
-150.6270114683369
 30
0.0
 10
136.5856982525619
 20
-150.2906731350875
 30
0.0
 10
136.4836396440545
 20
-149.9542289685049
 30
0.0
 10
136.0564610438417
 20
-149.6565550796906
 30
0.0
 10
135.4100310603335
 20
-149.6565550796906
 30
0.0
 10
134.763107187949
 20
-149.6565550796906
 30
0.0
 10
121.9330736263809
 20
-149.5891039685959
 30
0.0
 10
120.6399314371495
 20
-149.6565550796906
 30
0.0
 10
119.3466481368105
 20
-149.7238650796735
 30
0.0
 10
118.9025009259195
 20
-149.734624801893
 30
0.0
 10
118.6832142648476
 20
-150.1945764684446
 30
0.0
 10
118.4387745488612
 20
-150.7086795238716
 30
0.0
 10
118.4277678824753
 20
-152.3563281345709
 30
0.0
 10
118.8791470376264
 20
-152.8779453566628
 30
0.0
 10
119.0574761997435
 20
-153.0838617455003
 30
0.0
 10
120.12921506129
 20
-153.1480673010397
 30
0.0
 10
120.3335439449661
 20
-153.1480673010397
 30
0.0
  0
ENDBLK
  5
2BA
330
2B7
100
AcDbEntity
  8
0
100
AcDbBlockEnd
  0
BLOCK
  5
2D3
330
2D1
100
AcDbEntity
  8
0
100
AcDbBlockBegin
  2
block 16
 70
     0
 10
0.0
 20
0.0
 30
0.0
  3
block 16
  1

  0
SPLINE
  5
2D5
330
2D1
100
AcDbEntity
  8
Strichzeichnung
 62
   250
420
  2039073
370
    25
100
AcDbSpline
210
0.0
220
0.0
230
1.0
 70
     8
 71
     3
 72
    14
 73
    10
 74
     0
 42
0.0000000001
 43
0.0000000001
 12
1.0
 22
0.0
 32
0.0
 13
1.0
 23
0.0
 33
0.0
 40
0.0
 40
0.0
 40
0.0
 40
0.0
 40
1.0
 40
1.0
 40
1.0
 40
2.0
 40
2.0
 40
2.0
 40
3.0
 40
3.0
 40
3.0
 40
3.0
 10
122.8517774918317
 20
-213.2458783971269
 30
0.0
 10
122.6823030517109
 20
-212.5394761750806
 30
0.0
 10
122.4521861131375
 20
-211.7830853419365
 30
0.0
 10
122.1411066766291
 20
-210.9971317310219
 30
0.0
 10
121.8566646278327
 20
-210.2783117312018
 30
0.0
 10
118.9694228686566
 20
-210.8205311755111
 30
0.0
 10
118.7276642637132
 20
-211.0526589532303
 30
0.0
 10
118.4863289920924
 20
-211.2850336753944
 30
0.0
 10
118.6523840730786
 20
-216.4408808963276
 30
0.0
 10
118.6523840730786
 20
-216.6468678407204
 30
0.0
  0
POLYLINE
  5
2D6
330
2D1
100
AcDbEntity
  8
Strichzeichnung
 62
   250
420
  2039073
370
    25
100
AcDb2dPolyline
 66
     1
 10
0.0
 20
0.0
 30
0.0
  0
VERTEX
  5
2D7
330
2D6
100
AcDbEntity
  8
Strichzeichnung
 62
   250
420
  2039073
370
    25
100
AcDbVertex
100
AcDb2dVertex
 10
137.3595162883744
 20
-216.7678706184682
 30
0.0
  0
VERTEX
  5
2D8
330
2D6
100
AcDbEntity
  8
Strichzeichnung
 62
   250
420
  2039073
370
    25
100
AcDbVertex
100
AcDb2dVertex
 10
137.3595162883744
 20
-227.5049092268951
 30
0.0
  0
VERTEX
  5
2D9
330
2D6
100
AcDbEntity
  8
Strichzeichnung
 62
   250
420
  2039073
370
    25
100
AcDbVertex
100
AcDb2dVertex
 10
116.7476284808948
 20
-227.5049092268951
 30
0.0
  0
VERTEX
  5
2DA
330
2D6
100
AcDbEntity
  8
Strichzeichnung
 62
   250
420
  2039073
370
    25
100
AcDbVertex
100
AcDb2dVertex
 10
116.7476284808948
 20
-216.7678706184682
 30
0.0
  0
VERTEX
  5
2DB
330
2D6
100
AcDbEntity
  8
Strichzeichnung
 62
   250
420
  2039073
370
    25
100
AcDbVertex
100
AcDb2dVertex
 10
137.3595162883744
 20
-216.7678706184682
 30
0.0
  0
SEQEND
  5
2DC
330
2D6
100
AcDbEntity
  8
Strichzeichnung
 62
   250
420
  2039073
370
    25
  0
POLYLINE
  5
2DD
330
2D1
100
AcDbEntity
  8
Strichzeichnung
 62
   250
420
  2039073
370
    25
100
AcDb2dPolyline
 66
     1
 10
0.0
 20
0.0
 30
0.0
  0
VERTEX
  5
2DE
330
2DD
100
AcDbEntity
  8
Strichzeichnung
 62
   250
420
  2039073
370
    25
100
AcDbVertex
100
AcDb2dVertex
 10
137.1769890708089
 20
-227.5049092268951
 30
0.0
  0
VERTEX
  5
2DF
330
2DD
100
AcDbEntity
  8
Strichzeichnung
 62
   250
420
  2039073
370
    25
100
AcDbVertex
100
AcDb2dVertex
 10
137.092957406286
 20
-229.8733533929697
 30
0.0
  0
VERTEX
  5
2E0
330
2DD
100
AcDbEntity
  8
Strichzeichnung
 62
   250
420
  2039073
370
    25
100
AcDbVertex
100
AcDb2dVertex
 10
135.2814082858359
 20
-229.8733533929697
 30
0.0
  0
VERTEX
  5
2E1
330
2DD
100
AcDbEntity
  8
Strichzeichnung
 62
   250
420
  2039073
370
    25
100
AcDbVertex
100
AcDb2dVertex
 10
135.2103618467162
 20
-227.5049092268951
 30
0.0
  0
SEQEND
  5
2E2
330
2DD
100
AcDbEntity
  8
Strichzeichnung
 62
   250
420
  2039073
370
    25
  0
POLYLINE
  5
2E3
330
2D1
100
AcDbEntity
  8
Strichzeichnung
 62
   250
420
  2039073
370
    25
100
AcDb2dPolyline
 66
     1
 10
0.0
 20
0.0
 30
0.0
  0
VERTEX
  5
2E4
330
2E3
100
AcDbEntity
  8
Strichzeichnung
 62
   250
420
  2039073
370
    25
100
AcDbVertex
100
AcDb2dVertex
 10
118.8718118508013
 20
-227.5049092268951
 30
0.0
  0
VERTEX
  5
2E5
330
2E3
100
AcDbEntity
  8
Strichzeichnung
 62
   250
420
  2039073
370
    25
100
AcDbVertex
100
AcDb2dVertex
 10
118.7875306510751
 20
-229.8733886707472
 30
0.0
  0
VERTEX
  5
2E6
330
2E3
100
AcDbEntity
  8
Strichzeichnung
 62
   250
420
  2039073
370
    25
100
AcDbVertex
100
AcDb2dVertex
 10
116.9762284750628
 20
-229.8733886707472
 30
0.0
  0
VERTEX
  5
2E7
330
2E3
100
AcDbEntity
  8
Strichzeichnung
 62
   250
420
  2039073
370
    25
100
AcDbVertex
100
AcDb2dVertex
 10
116.9049320879928
 20
-227.5049092268951
 30
0.0
  0
SEQEND
  5
2E8
330
2E3
100
AcDbEntity
  8
Strichzeichnung
 62
   250
420
  2039073
370
    25
  0
SPLINE
  5
2E9
330
2D1
100
AcDbEntity
  8
Strichzeichnung
 62
   250
420
  2039073
370
    25
100
AcDbSpline
210
0.0
220
0.0
230
1.0
 70
     8
 71
     3
 72
    14
 73
    10
 74
     0
 42
0.0000000001
 43
0.0000000001
 12
1.0
 22
0.0
 32
0.0
 13
1.0
 23
0.0
 33
0.0
 40
0.0
 40
0.0
 40
0.0
 40
0.0
 40
1.0
 40
1.0
 40
1.0
 40
2.0
 40
2.0
 40
2.0
 40
3.0
 40
3.0
 40
3.0
 40
3.0
 10
137.3595162883744
 20
-218.6517745068857
 30
0.0
 10
137.7816501664938
 20
-218.6517745068857
 30
0.0
 10
138.0497965485417
 20
-218.9489897845897
 30
0.0
 10
138.0497965485417
 20
-218.9489897845897
 30
0.0
 10
138.0497965485417
 20
-218.9489897845897
 30
0.0
 10
138.0497965485417
 20
-222.7359181169759
 30
0.0
 10
138.0497965485417
 20
-222.7359181169759
 30
0.0
 10
138.0497965485417
 20
-222.7359181169759
 30
0.0
 10
137.8024287770748
 20
-223.1882145057521
 30
0.0
 10
137.3595162883744
 20
-223.214037839079
 30
0.0
  0
SPLINE
  5
2EA
330
2D1
100
AcDbEntity
  8
Strichzeichnung
 62
   250
420
  2039073
370
    25
100
AcDbSpline
210
0.0
220
0.0
230
1.0
 70
     8
 71
     3
 72
    26
 73
    22
 74
     0
 42
0.0000000001
 43
0.0000000001
 12
1.0
 22
0.0
 32
0.0
 13
1.0
 23
0.0
 33
0.0
 40
0.0
 40
0.0
 40
0.0
 40
0.0
 40
1.0
 40
1.0
 40
1.0
 40
2.0
 40
2.0
 40
2.0
 40
3.0
 40
3.0
 40
3.0
 40
4.0
 40
4.0
 40
4.0
 40
5.0
 40
5.0
 40
5.0
 40
6.0
 40
6.0
 40
6.0
 40
7.0
 40
7.0
 40
7.0
 40
7.0
 10
135.9202888250922
 20
-216.7678706184682
 30
0.0
 10
136.3286996480061
 20
-216.7678706184682
 30
0.0
 10
136.5328168650209
 20
-216.5061447852
 30
0.0
 10
136.5667540863773
 20
-216.3044617296947
 30
0.0
 10
136.6006913077337
 20
-216.1026375630787
 30
0.0
 10
136.687756861068
 20
-214.2468500635425
 30
0.0
 10
136.5856982525606
 20
-213.9105117302944
 30
0.0
 10
136.4836396440533
 20
-213.5740675637116
 30
0.0
 10
136.0564963216173
 20
-213.2763583971191
 30
0.0
 10
135.4100340688881
 20
-213.2763583971191
 30
0.0
 10
134.7631424657246
 20
-213.2763583971191
 30
0.0
 10
121.9330736263809
 20
-213.2089425638026
 30
0.0
 10
120.6399340725818
 20
-213.2763936748966
 30
0.0
 10
119.3466507395714
 20
-213.3437036748799
 30
0.0
 10
118.9025362036963
 20
-213.3544281193215
 30
0.0
 10
118.6832142648476
 20
-213.8144150636506
 30
0.0
 10
118.4387745488612
 20
-214.3285181190776
 30
0.0
 10
118.4277678824753
 20
-215.9761667297769
 30
0.0
 10
118.8791823154032
 20
-216.4977839518692
 30
0.0
 10
119.0574761997435
 20
-216.7036650629285
 30
0.0
 10
120.1292503390669
 20
-216.7678706184682
 30
0.0
 10
120.3335439449661
 20
-216.7678706184682
 30
0.0
  0
ENDBLK
  5
2D4
330
2D1
100
AcDbEntity
  8
0
100
AcDbBlockEnd
  0
ENDSEC
  0
SECTION
  2
ENTITIES
  0
MTEXT
  5
41
330
1F
100
AcDbEntity
  8
Beschriftung
 62
   250
420
  2039073
100
AcDbMText
 10
-4.676489985713157
 20
-39.00671729596999
 30
0.0
 40
5.49486666529295
 41
0.0
 46
0.0
 71
     7
 72
     1
  1
\fHelvetica Neue|b1|i0|c0|p34;\W1;/151
 73
     1
 44
1.0
  0
MTEXT
  5
42
330
1F
100
AcDbEntity
  8
Beschriftung
 62
   250
420
  2039073
100
AcDbMText
 10
-4.676489985713157
 20
-102.5099968495081
 30
0.0
 40
5.49486666529295
 41
0.0
 46
0.0
 71
     7
 72
     1
  1
\fHelvetica Neue|b1|i0|c0|p34;\W1;/102
 73
     1
 44
1.0
  0
MTEXT
  5
43
330
1F
100
AcDbEntity
  8
Beschriftung
 62
   250
420
  2039073
100
AcDbMText
 10
-4.676489985713157
 20
-166.0129184360935
 30
0.0
 40
5.49486666529295
 41
0.0
 46
0.0
 71
     7
 72
     1
  1
\fHelvetica Neue|b1|i0|c0|p34;\W1;/123
 73
     1
 44
1.0
  0
MTEXT
  5
44
330
1F
100
AcDbEntity
  8
Beschriftung
 62
   250
420
  2039073
100
AcDbMText
 10
-4.676489985713157
 20
-229.5160351550403
 30
0.0
 40
5.49486666529295
 41
0.0
 46
0.0
 71
     7
 72
     1
  1
\fHelvetica Neue|b1|i0|c0|p34;\W1;/103
 73
     1
 44
1.0
  0
MTEXT
  5
45
330
1F
100
AcDbEntity
  8
Beschriftung
 62
   250
420
  2039073
100
AcDbMText
 10
-4.676489985713157
 20
-293.0201692537476
 30
0.0
 40
5.49486666529295
 41
0.0
 46
0.0
 71
     7
 72
     1
  1
\fHelvetica Neue|b1|i0|c0|p34;\W1;/105
 73
     1
 44
1.0
  0
MTEXT
  5
46
330
1F
100
AcDbEntity
  8
Beschriftung
 62
   250
420
  2039073
100
AcDbMText
 10
-4.676489985713157
 20
-356.5259613046571
 30
0.0
 40
5.49486666529295
 41
0.0
 46
0.0
 71
     7
 72
     1
  1
\fHelvetica Neue|b1|i0|c0|p34;\W1;/96-97
 73
     1
 44
1.0
  0
POLYLINE
  5
48
330
1F
100
AcDbEntity
  8
Bemassung
 62
     7
420
 16777215
370
    18
100
AcDb2dPolyline
 66
     1
 10
0.0
 20
0.0
 30
0.0
  0
VERTEX
  5
49
330
48
100
AcDbEntity
  8
Bemassung
 62
     7
420
 16777215
370
    18
100
AcDbVertex
100
AcDb2dVertex
 10
27.01641958720782
 20
-44.26956094837519
 30
0.0
  0
VERTEX
  5
4A
330
48
100
AcDbEntity
  8
Bemassung
 62
     7
420
 16777215
370
    18
100
AcDbVertex
100
AcDb2dVertex
 10
47.58399902651043
 20
-44.26956094837519
 30
0.0
  0
SEQEND
  5
4B
330
48
100
AcDbEntity
  8
Bemassung
 62
     7
420
 16777215
370
    18
  0
MTEXT
  5
4C
330
1F
100
AcDbEntity
  8
Bemassung
 62
   250
420
  2039072
100
AcDbMText
 10
33.4118852748268
 20
-52.16245717683717
 30
0.0
 40
5.494811642004237
 41
0.0
 46
0.0
 71
     7
 72
     1
  1
\fHelvetica Neue|b0|i0|c0|p34;\W1.01461;84
 73
     1
 44
1.0
  0
POLYLINE
  5
4D
330
1F
100
AcDbEntity
  8
Bemassung
 62
     7
420
 16777215
370
    18
100
AcDb2dPolyline
 66
     1
 10
0.0
 20
0.0
 30
0.0
  0
VERTEX
  5
4E
330
4D
100
AcDbEntity
  8
Bemassung
 62
     7
420
 16777215
370
    18
100
AcDbVertex
100
AcDb2dVertex
 10
26.92008655945406
 20
-298.2835308848714
 30
0.0
  0
VERTEX
  5
4F
330
4D
100
AcDbEntity
  8
Bemassung
 62
     7
420
 16777215
370
    18
100
AcDbVertex
100
AcDb2dVertex
 10
43.19759541649592
 20
-298.2835308848714
 30
0.0
  0
SEQEND
  5
50
330
4D
100
AcDbEntity
  8
Bemassung
 62
     7
420
 16777215
370
    18
  0
MTEXT
  5
51
330
1F
100
AcDbEntity
  8
Bemassung
 62
   250
420
  2039072
100
AcDbMText
 10
30.73833135130963
 20
-306.17843374365
 30
0.0
 40
5.494811642004237
 41
0.0
 46
0.0
 71
     7
 72
     1
  1
\fHelvetica Neue|b0|i0|c0|p34;\W1.01461;66
 73
     1
 44
1.0
  0
POLYLINE
  5
52
330
1F
100
AcDbEntity
  8
Bemassung
 62
     7
420
 16777215
370
    18
100
AcDb2dPolyline
 66
     1
 10
0.0
 20
0.0
 30
0.0
  0
VERTEX
  5
53
330
52
100
AcDbEntity
  8
Bemassung
 62
     7
420
 16777215
370
    18
100
AcDbVertex
100
AcDb2dVertex
 10
26.94523141976208
 20
-361.8527458689786
 30
0.0
  0
VERTEX
  5
54
330
52
100
AcDbEntity
  8
Bemassung
 62
     7
420
 16777215
370
    18
100
AcDbVertex
100
AcDb2dVertex
 10
41.61591863831686
 20
-361.8527458689786
 30
0.0
  0
SEQEND
  5
55
330
52
100
AcDbEntity
  8
Bemassung
 62
     7
420
 16777215
370
    18
  0
MTEXT
  5
56
330
1F
100
AcDbEntity
  8
Bemassung
 62
   250
420
  2039072
100
AcDbMText
 10
29.90117314839392
 20
-369.6825463105105
 30
0.0
 40
5.494811642004237
 41
0.0
 46
0.0
 71
     7
 72
     1
  1
\fHelvetica Neue|b0|i0|c0|p34;\W1.01461;60
 73
     1
 44
1.0
  0
POLYLINE
  5
57
330
1F
100
AcDbEntity
  8
Bemassung
 62
     7
420
 16777215
370
    18
100
AcDb2dPolyline
 66
     1
 10
0.0
 20
0.0
 30
0.0
  0
VERTEX
  5
58
330
57
100
AcDbEntity
  8
Bemassung
 62
     7
420
 16777215
370
    18
100
AcDbVertex
100
AcDb2dVertex
 10
116.7476284808948
 20
-298.2835308848714
 30
0.0
  0
VERTEX
  5
59
330
57
100
AcDbEntity
  8
Bemassung
 62
     7
420
 16777215
370
    18
100
AcDbVertex
100
AcDb2dVertex
 10
132.9078833378865
 20
-298.2835308848714
 30
0.0
  0
SEQEND
  5
5A
330
57
100
AcDbEntity
  8
Bemassung
 62
     7
420
 16777215
370
    18
  0
MTEXT
  5
5B
330
1F
100
AcDbEntity
  8
Bemassung
 62
   250
420
  2039072
100
AcDbMText
 10
120.7938163548374
 20
-306.17843374365
 30
0.0
 40
5.494811642004237
 41
0.0
 46
0.0
 71
     7
 72
     1
  1
\fHelvetica Neue|b0|i0|c0|p34;\W1.01461;66
 73
     1
 44
1.0
  0
POLYLINE
  5
5C
330
1F
100
AcDbEntity
  8
Bemassung
 62
     7
420
 16777215
370
    18
100
AcDb2dPolyline
 66
     1
 10
0.0
 20
0.0
 30
0.0
  0
VERTEX
  5
5D
330
5C
100
AcDbEntity
  8
Bemassung
 62
     7
420
 16777215
370
    18
100
AcDbVertex
100
AcDb2dVertex
 10
26.92008655945406
 20
-108.022665376873
 30
0.0
  0
VERTEX
  5
5E
330
5C
100
AcDbEntity
  8
Bemassung
 62
     7
420
 16777215
370
    18
100
AcDbVertex
100
AcDb2dVertex
 10
66.56153846621055
 20
-108.022665376873
 30
0.0
  0
SEQEND
  5
5F
330
5C
100
AcDbEntity
  8
Bemassung
 62
     7
420
 16777215
370
    18
  0
MTEXT
  5
60
330
1F
100
AcDbEntity
  8
Bemassung
 62
   250
420
  2039072
100
AcDbMText
 10
40.19841322062053
 20
-115.9165329529993
 30
0.0
 40
5.494811642004237
 41
0.0
 46
0.0
 71
     7
 72
     1
  1
\fHelvetica Neue|b0|i0|c0|p34;\W1.01461;174
 73
     1
 44
1.0
  0
POLYLINE
  5
61
330
1F
100
AcDbEntity
  8
Bemassung
 62
     7
420
 16777215
370
    18
100
AcDb2dPolyline
 66
     1
 10
0.0
 20
0.0
 30
0.0
  0
VERTEX
  5
62
330
61
100
AcDbEntity
  8
Bemassung
 62
     7
420
 16777215
370
    18
100
AcDbVertex
100
AcDb2dVertex
 10
26.81604180948006
 20
-171.2757698055119
 30
0.0
  0
VERTEX
  5
63
330
61
100
AcDbEntity
  8
Bemassung
 62
     7
420
 16777215
370
    18
100
AcDbVertex
100
AcDb2dVertex
 10
74.37951621741738
 20
-171.2757698055119
 30
0.0
  0
SEQEND
  5
64
330
61
100
AcDbEntity
  8
Bemassung
 62
     7
420
 16777215
370
    18
  0
MTEXT
  5
65
330
1F
100
AcDbEntity
  8
Bemassung
 62
   250
420
  2039072
100
AcDbMText
 10
44.03073743841245
 20
-179.1705154387456
 30
0.0
 40
5.494811642004237
 41
0.0
 46
0.0
 71
     7
 72
     1
  1
\fHelvetica Neue|b0|i0|c0|p34;\W1.01461;207
 73
     1
 44
1.0
  0
POLYLINE
  5
66
330
1F
100
AcDbEntity
  8
Bemassung
 62
     7
420
 16777215
370
    18
100
AcDb2dPolyline
 66
     1
 10
0.0
 20
0.0
 30
0.0
  0
VERTEX
  5
67
330
66
100
AcDbEntity
  8
Bemassung
 62
     7
420
 16777215
370
    18
100
AcDbVertex
100
AcDb2dVertex
 10
26.8074728372602
 20
-234.7788742340808
 30
0.0
  0
VERTEX
  5
68
330
66
100
AcDbEntity
  8
Bemassung
 62
     7
420
 16777215
370
    18
100
AcDbVertex
100
AcDb2dVertex
 10
81.7104146415017
 20
-234.7788742340808
 30
0.0
  0
SEQEND
  5
69
330
66
100
AcDbEntity
  8
Bemassung
 62
     7
420
 16777215
370
    18
  0
MTEXT
  5
6A
330
1F
100
AcDbEntity
  8
Bemassung
 62
   250
420
  2039072
100
AcDbMText
 10
47.74179429512358
 20
-242.6744725725872
 30
0.0
 40
5.494811642004237
 41
0.0
 46
0.0
 71
     7
 72
     1
  1
\fHelvetica Neue|b0|i0|c0|p34;\W1.01461;237
 73
     1
 44
1.0
  0
POLYLINE
  5
6B
330
1F
100
AcDbEntity
  8
Bemassung
 62
   250
420
  2039073
370
    18
100
AcDb2dPolyline
 66
     1
 10
0.0
 20
0.0
 30
0.0
  0
VERTEX
  5
6C
330
6B
100
AcDbEntity
  8
Bemassung
 62
   250
420
  2039073
370
    18
100
AcDbVertex
100
AcDb2dVertex
 10
52.58491341416371
 20
-28.23621261905772
 30
0.0
  0
VERTEX
  5
6D
330
6B
100
AcDbEntity
  8
Bemassung
 62
   250
420
  2039073
370
    18
100
AcDbVertex
100
AcDb2dVertex
 10
52.58491341416371
 20
-39.24725372741587
 30
0.0
  0
SEQEND
  5
6E
330
6B
100
AcDbEntity
  8
Bemassung
 62
   250
420
  2039073
370
    18
  0
MTEXT
  5
6F
330
1F
100
AcDbEntity
  8
Bemassung
 62
   250
420
  2039072
100
AcDbMText
 10
60.61420583207487
 20
-38.12093078796979
 30
0.0
 40
5.494811642004237
 41
0.0
 46
0.0
 71
     7
 72
     1
  1
\fHelvetica Neue|b0|i0|c0|p34;\W1.01461;46
 11
6.123233995736766E-17
 21
1.0
 31
0.0
 73
     1
 44
1.0
  0
POLYLINE
  5
70
330
1F
100
AcDbEntity
  8
Bemassung
 62
   250
420
  2039073
370
    18
100
AcDb2dPolyline
 66
     1
 10
0.0
 20
0.0
 30
0.0
  0
VERTEX
  5
71
330
70
100
AcDbEntity
  8
Bemassung
 62
   250
420
  2039073
370
    18
100
AcDbVertex
100
AcDb2dVertex
 10
73.6490208986414
 20
-92.15418371418934
 30
0.0
  0
VERTEX
  5
72
330
70
100
AcDbEntity
  8
Bemassung
 62
   250
420
  2039073
370
    18
100
AcDbVertex
100
AcDb2dVertex
 10
73.6490208986414
 20
-102.9884126003696
 30
0.0
  0
SEQEND
  5
73
330
70
100
AcDbEntity
  8
Bemassung
 62
   250
420
  2039073
370
    18
  0
MTEXT
  5
74
330
1F
100
AcDbEntity
  8
Bemassung
 62
   250
420
  2039072
100
AcDbMText
 10
81.6788424917291
 20
-101.951524018896
 30
0.0
 40
5.494811642004237
 41
0.0
 46
0.0
 71
     7
 72
     1
  1
\fHelvetica Neue|b0|i0|c0|p34;\W1.01461;46
 11
6.123233995736766E-17
 21
1.0
 31
0.0
 73
     1
 44
1.0
  0
POLYLINE
  5
75
330
1F
100
AcDbEntity
  8
Bemassung
 62
   250
420
  2039073
370
    18
100
AcDb2dPolyline
 66
     1
 10
0.0
 20
0.0
 30
0.0
  0
VERTEX
  5
76
330
75
100
AcDbEntity
  8
Bemassung
 62
   250
420
  2039073
370
    18
100
AcDbVertex
100
AcDb2dVertex
 10
81.35665877017395
 20
-155.2710670317434
 30
0.0
  0
VERTEX
  5
77
330
75
100
AcDbEntity
  8
Bemassung
 62
   250
420
  2039073
370
    18
100
AcDbVertex
100
AcDb2dVertex
 10
81.35665877017395
 20
-166.4915170289381
 30
0.0
  0
SEQEND
  5
78
330
75
100
AcDbEntity
  8
Bemassung
 62
   250
420
  2039073
370
    18
  0
MTEXT
  5
79
330
1F
100
AcDbEntity
  8
Bemassung
 62
   250
420
  2039072
100
AcDbMText
 10
89.38666631733375
 20
-165.2623882608808
 30
0.0
 40
5.494811642004237
 41
0.0
 46
0.0
 71
     7
 72
     1
  1
\fHelvetica Neue|b0|i0|c0|p34;\W1.01461;46
 11
6.123233995736766E-17
 21
1.0
 31
0.0
 73
     1
 44
1.0
  0
POLYLINE
  5
7A
330
1F
100
AcDbEntity
  8
Bemassung
 62
   250
420
  2039073
370
    18
100
AcDb2dPolyline
 66
     1
 10
0.0
 20
0.0
 30
0.0
  0
VERTEX
  5
7B
330
7A
100
AcDbEntity
  8
Bemassung
 62
   250
420
  2039073
370
    18
100
AcDbVertex
100
AcDb2dVertex
 10
88.45631690345708
 20
-218.9391303491605
 30
0.0
  0
VERTEX
  5
7C
330
7A
100
AcDbEntity
  8
Bemassung
 62
   250
420
  2039073
370
    18
100
AcDbVertex
100
AcDb2dVertex
 10
88.45631690345708
 20
-229.9945861797291
 30
0.0
  0
SEQEND
  5
7D
330
7A
100
AcDbEntity
  8
Bemassung
 62
   250
420
  2039073
370
    18
  0
MTEXT
  5
7E
330
1F
100
AcDbEntity
  8
Bemassung
 62
   250
420
  2039072
100
AcDbMText
 10
96.48648798375982
 20
-228.8489893327662
 30
0.0
 40
5.494811642004237
 41
0.0
 46
0.0
 71
     7
 72
     1
  1
\fHelvetica Neue|b0|i0|c0|p34;\W1.01461;46
 11
6.123233995736766E-17
 21
1.0
 31
0.0
 73
     1
 44
1.0
  0
POLYLINE
  5
7F
330
1F
100
AcDbEntity
  8
Bemassung
 62
   250
420
  2039073
370
    18
100
AcDb2dPolyline
 66
     1
 10
0.0
 20
0.0
 30
0.0
  0
VERTEX
  5
80
330
7F
100
AcDbEntity
  8
Bemassung
 62
   250
420
  2039073
370
    18
100
AcDbVertex
100
AcDb2dVertex
 10
46.61517519262913
 20
-337.3225330973417
 30
0.0
  0
VERTEX
  5
81
330
7F
100
AcDbEntity
  8
Bemassung
 62
   250
420
  2039073
370
    18
100
AcDbVertex
100
AcDb2dVertex
 10
46.61517519262913
 20
-342.9541364292668
 30
0.0
  0
SEQEND
  5
82
330
7F
100
AcDbEntity
  8
Bemassung
 62
   250
420
  2039073
370
    18
  0
MTEXT
  5
83
330
1F
100
AcDbEntity
  8
Bemassung
 62
   250
420
  2039072
100
AcDbMText
 10
54.54883531628435
 20
-344.5178764634085
 30
0.0
 40
5.494811642004237
 41
0.0
 46
0.0
 71
     7
 72
     1
  1
\fHelvetica Neue|b0|i0|c0|p34;\W1.01461;23
 11
6.123233995736766E-17
 21
1.0
 31
0.0
 73
     1
 44
1.0
  0
POLYLINE
  5
84
330
1F
100
AcDbEntity
  8
Bemassung
 62
     7
420
 16777215
370
    18
100
AcDb2dPolyline
 66
     1
 10
0.0
 20
0.0
 30
0.0
  0
VERTEX
  5
85
330
84
100
AcDbEntity
  8
Bemassung
 62
     7
420
 16777215
370
    18
100
AcDbVertex
100
AcDb2dVertex
 10
116.7476284808948
 20
-44.0195609484456
 30
0.0
  0
VERTEX
  5
86
330
84
100
AcDbEntity
  8
Bemassung
 62
     7
420
 16777215
370
    18
100
AcDbVertex
100
AcDb2dVertex
 10
137.3597632328132
 20
-44.0195609484456
 30
0.0
  0
SEQEND
  5
87
330
84
100
AcDbEntity
  8
Bemassung
 62
     7
420
 16777215
370
    18
  0
MTEXT
  5
88
330
1F
100
AcDbEntity
  8
Bemassung
 62
   250
420
  2039072
100
AcDbMText
 10
123.1028916227999
 20
-51.91245090384194
 30
0.0
 40
5.494811642004237
 41
0.0
 46
0.0
 71
     7
 72
     1
  1
\fHelvetica Neue|b0|i0|c0|p34;\W1.01461;87
 73
     1
 44
1.0
  0
POLYLINE
  5
89
330
1F
100
AcDbEntity
  8
Bemassung
 62
     7
420
 16777215
370
    18
100
AcDb2dPolyline
 66
     1
 10
0.0
 20
0.0
 30
0.0
  0
VERTEX
  5
8A
330
89
100
AcDbEntity
  8
Bemassung
 62
     7
420
 16777215
370
    18
100
AcDbVertex
100
AcDb2dVertex
 10
116.7476284808948
 20
-107.7726653769437
 30
0.0
  0
VERTEX
  5
8B
330
89
100
AcDbEntity
  8
Bemassung
 62
     7
420
 16777215
370
    18
100
AcDbVertex
100
AcDb2dVertex
 10
137.8924576636682
 20
-107.7726653769437
 30
0.0
  0
SEQEND
  5
8C
330
89
100
AcDbEntity
  8
Bemassung
 62
     7
420
 16777215
370
    18
  0
MTEXT
  5
8D
330
1F
100
AcDbEntity
  8
Bemassung
 62
   250
420
  2039072
100
AcDbMText
 10
123.4782347569441
 20
-115.6665374459275
 30
0.0
 40
5.494811642004237
 41
0.0
 46
0.0
 71
     7
 72
     1
  1
\fHelvetica Neue|b0|i0|c0|p34;\W1.01461;87
 73
     1
 44
1.0
  0
POLYLINE
  5
8E
330
1F
100
AcDbEntity
  8
Bemassung
 62
   250
420
  2039073
370
    18
100
AcDb2dPolyline
 66
     1
 10
0.0
 20
0.0
 30
0.0
  0
VERTEX
  5
8F
330
8E
100
AcDbEntity
  8
Bemassung
 62
   250
420
  2039073
370
    18
100
AcDbVertex
100
AcDb2dVertex
 10
143.1323253132506
 20
-25.7497290085681
 30
0.0
  0
VERTEX
  5
90
330
8E
100
AcDbEntity
  8
Bemassung
 62
   250
420
  2039073
370
    18
100
AcDbVertex
100
AcDb2dVertex
 10
143.1323253132506
 20
-39.31752706073164
 30
0.0
  0
SEQEND
  5
91
330
8E
100
AcDbEntity
  8
Bemassung
 62
   250
420
  2039073
370
    18
  0
MTEXT
  5
92
330
1F
100
AcDbEntity
  8
Bemassung
 62
   250
420
  2039072
100
AcDbMText
 10
151.1192273359734
 20
-36.91197614117269
 30
0.0
 40
5.494811642004237
 41
0.0
 46
0.0
 71
     7
 72
     1
  1
\fHelvetica Neue|b0|i0|c0|p34;\W1.01461;57
 11
6.123233995736766E-17
 21
1.0
 31
0.0
 73
     1
 44
1.0
  0
POLYLINE
  5
93
330
1F
100
AcDbEntity
  8
Bemassung
 62
   250
420
  2039073
370
    18
100
AcDb2dPolyline
 66
     1
 10
0.0
 20
0.0
 30
0.0
  0
VERTEX
  5
94
330
93
100
AcDbEntity
  8
Bemassung
 62
   250
420
  2039073
370
    18
100
AcDbVertex
100
AcDb2dVertex
 10
222.3999010702327
 20
-26.33996150842053
 30
0.0
  0
VERTEX
  5
95
330
93
100
AcDbEntity
  8
Bemassung
 62
   250
420
  2039073
370
    18
100
AcDbVertex
100
AcDb2dVertex
 10
222.3999010702327
 20
-39.31752706073164
 30
0.0
  0
SEQEND
  5
96
330
93
100
AcDbEntity
  8
Bemassung
 62
   250
420
  2039073
370
    18
  0
MTEXT
  5
97
330
1F
100
AcDbEntity
  8
Bemassung
 62
   250
420
  2039072
100
AcDbMText
 10
230.2179468105475
 20
-37.20708490447578
 30
0.0
 40
5.494811642004237
 41
0.0
 46
0.0
 71
     7
 72
     1
  1
\fHelvetica Neue|b0|i0|c0|p34;\W1.01461;52
 11
6.123233995736766E-17
 21
1.0
 31
0.0
 73
     1
 44
1.0
  0
POLYLINE
  5
98
330
1F
100
AcDbEntity
  8
Bemassung
 62
   250
420
  2039073
370
    18
100
AcDb2dPolyline
 66
     1
 10
0.0
 20
0.0
 30
0.0
  0
VERTEX
  5
99
330
98
100
AcDbEntity
  8
Bemassung
 62
   250
420
  2039073
370
    18
100
AcDbVertex
100
AcDb2dVertex
 10
143.1644842521065
 20
-89.66745315925547
 30
0.0
  0
VERTEX
  5
9A
330
98
100
AcDbEntity
  8
Bemassung
 62
   250
420
  2039073
370
    18
100
AcDbVertex
100
AcDb2dVertex
 10
143.1644842521065
 20
-102.8206314893005
 30
0.0
  0
SEQEND
  5
9B
330
98
100
AcDbEntity
  8
Bemassung
 62
   250
420
  2039073
370
    18
  0
MTEXT
  5
9C
330
1F
100
AcDbEntity
  8
Bemassung
 62
   250
420
  2039072
100
AcDbMText
 10
151.1486775332097
 20
-100.4938395235464
 30
0.0
 40
5.494811642004237
 41
0.0
 46
0.0
 71
     7
 72
     1
  1
\fHelvetica Neue|b0|i0|c0|p34;\W1.01461;57
 11
6.123233995736766E-17
 21
1.0
 31
0.0
 73
     1
 44
1.0
  0
POLYLINE
  5
9D
330
1F
100
AcDbEntity
  8
Bemassung
 62
   250
420
  2039073
370
    18
100
AcDb2dPolyline
 66
     1
 10
0.0
 20
0.0
 30
0.0
  0
VERTEX
  5
9E
330
9D
100
AcDbEntity
  8
Bemassung
 62
   250
420
  2039073
370
    18
100
AcDbVertex
100
AcDb2dVertex
 10
244.6267808204848
 20
-89.66745315925547
 30
0.0
  0
VERTEX
  5
9F
330
9D
100
AcDbEntity
  8
Bemassung
 62
   250
420
  2039073
370
    18
100
AcDbVertex
100
AcDb2dVertex
 10
244.6267808204848
 20
-102.8206314893005
 30
0.0
  0
SEQEND
  5
A0
330
9D
100
AcDbEntity
  8
Bemassung
 62
   250
420
  2039073
370
    18
  0
MTEXT
  5
A1
330
1F
100
AcDbEntity
  8
Bemassung
 62
   250
420
  2039072
100
AcDbMText
 10
252.5521778740698
 20
-100.4350360499826
 30
0.0
 40
5.494811642004237
 41
0.0
 46
0.0
 71
     7
 72
     1
  1
\fHelvetica Neue|b0|i0|c0|p34;\W1.01461;52
 11
6.123233995736766E-17
 21
1.0
 31
0.0
 73
     1
 44
1.0
  0
MTEXT
  5
A2
330
1F
100
AcDbEntity
  8
Bemassung
 62
   250
420
  2039072
100
AcDbMText
 10
109.1631314408786
 20
-34.10894632977455
 30
0.0
 40
5.494811642004237
 41
0.0
 46
0.0
 71
     7
 72
     1
  1
\fHelvetica Neue|b0|i0|c0|p34;\W1.01461;78
 11
6.123233995736766E-17
 21
1.0
 31
0.0
 73
     1
 44
1.0
  0
POLYLINE
  5
A3
330
1F
100
AcDbEntity
  8
Bemassung
 62
     7
420
 16777215
370
    18
100
AcDb2dPolyline
 66
     1
 10
0.0
 20
0.0
 30
0.0
  0
VERTEX
  5
A4
330
A3
100
AcDbEntity
  8
Bemassung
 62
     7
420
 16777215
370
    18
100
AcDbVertex
100
AcDb2dVertex
 10
111.7375037053716
 20
-19.74044178784817
 30
0.0
  0
VERTEX
  5
A5
330
A3
100
AcDbEntity
  8
Bemassung
 62
     7
420
 16777215
370
    18
100
AcDbVertex
100
AcDb2dVertex
 10
111.7375037053716
 20
-39.25621428296935
 30
0.0
  0
SEQEND
  5
A6
330
A3
100
AcDbEntity
  8
Bemassung
 62
     7
420
 16777215
370
    18
  0
MTEXT
  5
A7
330
1F
100
AcDbEntity
  8
Bemassung
 62
   250
420
  2039072
100
AcDbMText
 10
109.1943766974793
 20
-98.18850187589064
 30
0.0
 40
5.494811642004237
 41
0.0
 46
0.0
 71
     7
 72
     1
  1
\fHelvetica Neue|b0|i0|c0|p34;\W1.01461;78
 11
6.123233995736766E-17
 21
1.0
 31
0.0
 73
     1
 44
1.0
  0
POLYLINE
  5
A8
330
1F
100
AcDbEntity
  8
Bemassung
 62
     7
420
 16777215
370
    18
100
AcDb2dPolyline
 66
     1
 10
0.0
 20
0.0
 30
0.0
  0
VERTEX
  5
A9
330
A8
100
AcDbEntity
  8
Bemassung
 62
     7
420
 16777215
370
    18
100
AcDbVertex
100
AcDb2dVertex
 10
111.7083030060506
 20
-83.53716316078808
 30
0.0
  0
VERTEX
  5
AA
330
A8
100
AcDbEntity
  8
Bemassung
 62
     7
420
 16777215
370
    18
100
AcDbVertex
100
AcDb2dVertex
 10
111.7083030060506
 20
-102.7592834337607
 30
0.0
  0
SEQEND
  5
AB
330
A8
100
AcDbEntity
  8
Bemassung
 62
     7
420
 16777215
370
    18
  0
MTEXT
  5
AC
330
1F
100
AcDbEntity
  8
Bemassung
 62
   250
420
  2039072
100
AcDbMText
 10
145.971471373182
 20
-292.1093683971687
 30
0.0
 40
5.494811642004237
 41
0.0
 46
0.0
 71
     7
 72
     1
  1
\fHelvetica Neue|b0|i0|c0|p34;\W1.01461;44
 11
6.123233995736766E-17
 21
1.0
 31
0.0
 73
     1
 44
1.0
  0
POLYLINE
  5
AD
330
1F
100
AcDbEntity
  8
Bemassung
 62
     7
420
 16777215
370
    18
100
AcDb2dPolyline
 66
     1
 10
0.0
 20
0.0
 30
0.0
  0
VERTEX
  5
AE
330
AD
100
AcDbEntity
  8
Bemassung
 62
     7
420
 16777215
370
    18
100
AcDbVertex
100
AcDb2dVertex
 10
138.0474069302894
 20
-282.5483503332574
 30
0.0
  0
VERTEX
  5
AF
330
AD
100
AcDbEntity
  8
Bemassung
 62
     7
420
 16777215
370
    18
100
AcDbVertex
100
AcDb2dVertex
 10
138.0474069302894
 20
-293.270325330577
 30
0.0
  0
SEQEND
  5
B0
330
AD
100
AcDbEntity
  8
Bemassung
 62
     7
420
 16777215
370
    18
  0
POLYLINE
  5
B1
330
1F
100
AcDbEntity
  8
Bemassung
 62
   250
420
  2039073
370
    18
100
AcDb2dPolyline
 66
     1
 10
0.0
 20
0.0
 30
0.0
  0
VERTEX
  5
B2
330
B1
100
AcDbEntity
  8
Bemassung
 62
   250
420
  2039073
370
    18
100
AcDbVertex
100
AcDb2dVertex
 10
252.4278365501232
 20
-153.170557587824
 30
0.0
  0
VERTEX
  5
B3
330
B1
100
AcDbEntity
  8
Bemassung
 62
   250
420
  2039073
370
    18
100
AcDbVertex
100
AcDb2dVertex
 10
252.4278365501232
 20
-166.323735917869
 30
0.0
  0
SEQEND
  5
B4
330
B1
100
AcDbEntity
  8
Bemassung
 62
   250
420
  2039073
370
    18
  0
MTEXT
  5
B5
330
1F
100
AcDbEntity
  8
Bemassung
 62
   250
420
  2039072
100
AcDbMText
 10
260.3532413249461
 20
-163.9381366200443
 30
0.0
 40
5.494811642004237
 41
0.0
 46
0.0
 71
     7
 72
     1
  1
\fHelvetica Neue|b0|i0|c0|p34;\W1.01461;52
 11
6.123233995736766E-17
 21
1.0
 31
0.0
 73
     1
 44
1.0
  0
POLYLINE
  5
B6
330
1F
100
AcDbEntity
  8
Bemassung
 62
   250
420
  2039073
370
    18
100
AcDb2dPolyline
 66
     1
 10
0.0
 20
0.0
 30
0.0
  0
VERTEX
  5
B7
330
B6
100
AcDbEntity
  8
Bemassung
 62
   250
420
  2039073
370
    18
100
AcDbVertex
100
AcDb2dVertex
 10
260.0469293744053
 20
-216.7903961830303
 30
0.0
  0
VERTEX
  5
B8
330
B6
100
AcDbEntity
  8
Bemassung
 62
   250
420
  2039073
370
    18
100
AcDbVertex
100
AcDb2dVertex
 10
260.0469293744053
 20
-229.9435392352978
 30
0.0
  0
SEQEND
  5
B9
330
B6
100
AcDbEntity
  8
Bemassung
 62
   250
420
  2039073
370
    18
  0
MTEXT
  5
BA
330
1F
100
AcDbEntity
  8
Bemassung
 62
   250
420
  2039072
100
AcDbMText
 10
267.9723714364311
 20
-227.5579613315156
 30
0.0
 40
5.494811642004237
 41
0.0
 46
0.0
 71
     7
 72
     1
  1
\fHelvetica Neue|b0|i0|c0|p34;\W1.01461;52
 11
6.123233995736766E-17
 21
1.0
 31
0.0
 73
     1
 44
1.0
  0
POLYLINE
  5
BB
330
1F
100
AcDbEntity
  8
Bemassung
 62
   250
420
  2039073
370
    18
100
AcDb2dPolyline
 66
     1
 10
0.0
 20
0.0
 30
0.0
  0
VERTEX
  5
BC
330
BB
100
AcDbEntity
  8
Bemassung
 62
   250
420
  2039073
370
    18
100
AcDbVertex
100
AcDb2dVertex
 10
143.0845778653606
 20
-153.1685114767134
 30
0.0
  0
VERTEX
  5
BD
330
BB
100
AcDbEntity
  8
Bemassung
 62
   250
420
  2039073
370
    18
100
AcDbVertex
100
AcDb2dVertex
 10
143.0845778653606
 20
-166.3216898067585
 30
0.0
  0
SEQEND
  5
BE
330
BB
100
AcDbEntity
  8
Bemassung
 62
   250
420
  2039073
370
    18
  0
MTEXT
  5
BF
330
1F
100
AcDbEntity
  8
Bemassung
 62
   250
420
  2039072
100
AcDbMText
 10
151.0687836157221
 20
-163.9949161000106
 30
0.0
 40
5.494811642004237
 41
0.0
 46
0.0
 71
     7
 72
     1
  1
\fHelvetica Neue|b0|i0|c0|p34;\W1.01461;57
 11
6.123233995736766E-17
 21
1.0
 31
0.0
 73
     1
 44
1.0
  0
POLYLINE
  5
C0
330
1F
100
AcDbEntity
  8
Bemassung
 62
     7
420
 16777215
370
    18
100
AcDb2dPolyline
 66
     1
 10
0.0
 20
0.0
 30
0.0
  0
VERTEX
  5
C1
330
C0
100
AcDbEntity
  8
Bemassung
 62
     7
420
 16777215
370
    18
100
AcDbVertex
100
AcDb2dVertex
 10
116.7476284808948
 20
-171.2737236944014
 30
0.0
  0
VERTEX
  5
C2
330
C0
100
AcDbEntity
  8
Bemassung
 62
     7
420
 16777215
370
    18
100
AcDbVertex
100
AcDb2dVertex
 10
137.8924576636669
 20
-171.2737236944014
 30
0.0
  0
SEQEND
  5
C3
330
C0
100
AcDbEntity
  8
Bemassung
 62
     7
420
 16777215
370
    18
  0
MTEXT
  5
C4
330
1F
100
AcDbEntity
  8
Bemassung
 62
   250
420
  2039072
100
AcDbMText
 10
123.3983085416863
 20
-179.167624788315
 30
0.0
 40
5.494811642004237
 41
0.0
 46
0.0
 71
     7
 72
     1
  1
\fHelvetica Neue|b0|i0|c0|p34;\W1.01461;87
 73
     1
 44
1.0
  0
MTEXT
  5
C5
330
1F
100
AcDbEntity
  8
Bemassung
 62
   250
420
  2039072
100
AcDbMText
 10
109.2349364837751
 20
-161.8333121040434
 30
0.0
 40
5.494811642004237
 41
0.0
 46
0.0
 71
     7
 72
     1
  1
\fHelvetica Neue|b0|i0|c0|p34;\W1.01461;78
 11
6.123233995736766E-17
 21
1.0
 31
0.0
 73
     1
 44
1.0
  0
POLYLINE
  5
C6
330
1F
100
AcDbEntity
  8
Bemassung
 62
     7
420
 16777215
370
    18
100
AcDb2dPolyline
 66
     1
 10
0.0
 20
0.0
 30
0.0
  0
VERTEX
  5
C7
330
C6
100
AcDbEntity
  8
Bemassung
 62
     7
420
 16777215
370
    18
100
AcDbVertex
100
AcDb2dVertex
 10
111.6283945986887
 20
-147.038221478246
 30
0.0
  0
VERTEX
  5
C8
330
C6
100
AcDbEntity
  8
Bemassung
 62
     7
420
 16777215
370
    18
100
AcDbVertex
100
AcDb2dVertex
 10
111.6283945986887
 20
-166.2603417512183
 30
0.0
  0
SEQEND
  5
C9
330
C6
100
AcDbEntity
  8
Bemassung
 62
     7
420
 16777215
370
    18
  0
POLYLINE
  5
CA
330
1F
100
AcDbEntity
  8
Bemassung
 62
     7
420
 16777215
370
    18
100
AcDb2dPolyline
 66
     1
 10
0.0
 20
0.0
 30
0.0
  0
VERTEX
  5
CB
330
CA
100
AcDbEntity
  8
Bemassung
 62
     7
420
 16777215
370
    18
100
AcDbVertex
100
AcDb2dVertex
 10
116.7476284808948
 20
-234.8935622896077
 30
0.0
  0
VERTEX
  5
CC
330
CA
100
AcDbEntity
  8
Bemassung
 62
     7
420
 16777215
370
    18
100
AcDbVertex
100
AcDb2dVertex
 10
137.892492941445
 20
-234.8935622896077
 30
0.0
  0
SEQEND
  5
CD
330
CA
100
AcDbEntity
  8
Bemassung
 62
     7
420
 16777215
370
    18
  0
MTEXT
  5
CE
330
1F
100
AcDbEntity
  8
Bemassung
 62
   250
420
  2039072
100
AcDbMText
 10
123.6821844096709
 20
-242.7874394067332
 30
0.0
 40
5.494811642004237
 41
0.0
 46
0.0
 71
     7
 72
     1
  1
\fHelvetica Neue|b0|i0|c0|p34;\W1.01461;87
 73
     1
 44
1.0
  0
POLYLINE
  5
CF
330
1F
100
AcDbEntity
  8
Bemassung
 62
   250
420
  2039073
370
    18
100
AcDb2dPolyline
 66
     1
 10
0.0
 20
0.0
 30
0.0
  0
VERTEX
  5
D0
330
CF
100
AcDbEntity
  8
Bemassung
 62
   250
420
  2039073
370
    18
100
AcDbVertex
100
AcDb2dVertex
 10
143.1183548637285
 20
-216.7883500719201
 30
0.0
  0
VERTEX
  5
D1
330
CF
100
AcDbEntity
  8
Bemassung
 62
   250
420
  2039073
370
    18
100
AcDbVertex
100
AcDb2dVertex
 10
143.1183548637285
 20
-229.9415284019651
 30
0.0
  0
SEQEND
  5
D2
330
CF
100
AcDbEntity
  8
Bemassung
 62
   250
420
  2039073
370
    18
  0
MTEXT
  5
D3
330
1F
100
AcDbEntity
  8
Bemassung
 62
   250
420
  2039072
100
AcDbMText
 10
151.1025294025924
 20
-227.6147408114819
 30
0.0
 40
5.494811642004237
 41
0.0
 46
0.0
 71
     7
 72
     1
  1
\fHelvetica Neue|b0|i0|c0|p34;\W1.01461;57
 11
6.123233995736766E-17
 21
1.0
 31
0.0
 73
     1
 44
1.0
  0
MTEXT
  5
D4
330
1F
100
AcDbEntity
  8
Bemassung
 62
   250
420
  2039072
100
AcDbMText
 10
109.205524989718
 20
-224.8638789138664
 30
0.0
 40
5.494811642004237
 41
0.0
 46
0.0
 71
     7
 72
     1
  1
\fHelvetica Neue|b0|i0|c0|p34;\W1.01461;78
 11
6.123233995736766E-17
 21
1.0
 31
0.0
 73
     1
 44
1.0
  0
POLYLINE
  5
D5
330
1F
100
AcDbEntity
  8
Bemassung
 62
     7
420
 16777215
370
    18
100
AcDb2dPolyline
 66
     1
 10
0.0
 20
0.0
 30
0.0
  0
VERTEX
  5
D6
330
D5
100
AcDbEntity
  8
Bemassung
 62
     7
420
 16777215
370
    18
100
AcDbVertex
100
AcDb2dVertex
 10
111.6621363192794
 20
-210.658060073452
 30
0.0
  0
VERTEX
  5
D7
330
D5
100
AcDbEntity
  8
Bemassung
 62
     7
420
 16777215
370
    18
100
AcDbVertex
100
AcDb2dVertex
 10
111.6621363192794
 20
-229.8801803464243
 30
0.0
  0
SEQEND
  5
D8
330
D5
100
AcDbEntity
  8
Bemassung
 62
     7
420
 16777215
370
    18
  0
INSERT
  5
DB
330
1F
100
AcDbEntity
  8
Strichzeichnung
100
AcDbBlockReference
  2
block 2
 10
0.0
 20
0.0
 30
0.0
  0
INSERT
  5
F3
330
1F
100
AcDbEntity
  8
Strichzeichnung
100
AcDbBlockReference
  2
block 3
 10
0.0
 20
0.0
 30
0.0
  0
INSERT
  5
10B
330
1F
100
AcDbEntity
  8
Strichzeichnung
100
AcDbBlockReference
  2
block 4
 10
0.0
 20
0.0
 30
0.0
  0
INSERT
  5
13A
330
1F
100
AcDbEntity
  8
Strichzeichnung
100
AcDbBlockReference
  2
block 5
 10
0.0
 20
0.0
 30
0.0
  0
INSERT
  5
166
330
1F
100
AcDbEntity
  8
Strichzeichnung
100
AcDbBlockReference
  2
block 6
 10
0.0
 20
0.0
 30
0.0
  0
INSERT
  5
18D
330
1F
100
AcDbEntity
  8
Strichzeichnung
100
AcDbBlockReference
  2
block 7
 10
0.0
 20
0.0
 30
0.0
  0
INSERT
  5
1A7
330
1F
100
AcDbEntity
  8
Strichzeichnung
100
AcDbBlockReference
  2
block 8
 10
0.0
 20
0.0
 30
0.0
  0
INSERT
  5
1C0
330
1F
100
AcDbEntity
  8
Strichzeichnung
100
AcDbBlockReference
  2
block 9
 10
0.0
 20
0.0
 30
0.0
  0
INSERT
  5
1EC
330
1F
100
AcDbEntity
  8
Strichzeichnung
100
AcDbBlockReference
  2
block 10
 10
0.0
 20
0.0
 30
0.0
  0
INSERT
  5
1F3
330
1F
100
AcDbEntity
  8
Strichzeichnung
100
AcDbBlockReference
  2
block 11
 10
0.0
 20
0.0
 30
0.0
  0
INSERT
  5
227
330
1F
100
AcDbEntity
  8
Strichzeichnung
100
AcDbBlockReference
  2
block 12
 10
0.0
 20
0.0
 30
0.0
  0
SPLINE
  5
252
330
1F
100
AcDbEntity
  8
Strichzeichnung
 62
   250
420
  2039073
370
    25
100
AcDbSpline
210
0.0
220
0.0
230
1.0
 70
    11
 71
     3
 72
    29
 73
    25
 74
     0
 42
0.0000000001
 43
0.0000000001
 12
1.0
 22
0.0
 32
0.0
 13
1.0
 23
0.0
 33
0.0
 40
0.0
 40
0.0
 40
0.0
 40
0.0
 40
1.0
 40
1.0
 40
1.0
 40
2.0
 40
2.0
 40
2.0
 40
3.0
 40
3.0
 40
3.0
 40
4.0
 40
4.0
 40
4.0
 40
5.0
 40
5.0
 40
5.0
 40
6.0
 40
6.0
 40
6.0
 40
7.0
 40
7.0
 40
7.0
 40
8.0
 40
8.0
 40
8.0
 40
8.0
 10
210.8801068787405
 20
-293.2486111549032
 30
0.0
 10
210.8801068787405
 20
-293.2486111549032
 30
0.0
 10
199.1038557902888
 20
-293.2486111549032
 30
0.0
 10
199.1038557902888
 20
-293.2486111549032
 30
0.0
 10
197.898555265483
 20
-293.2486111549032
 30
0.0
 10
196.912400290642
 20
-292.2624561551501
 30
0.0
 10
196.912400290642
 20
-291.0571555998957
 30
0.0
 10
196.912400290642
 20
-291.0571555998957
 30
0.0
 10
196.912400290642
 20
-279.280904213951
 30
0.0
 10
196.912400290642
 20
-279.280904213951
 30
0.0
 10
196.912400290642
 20
-278.0756036586967
 30
0.0
 10
197.898555265483
 20
-277.0894486589435
 30
0.0
 10
199.1038557902888
 20
-277.0894486589435
 30
0.0
 10
199.1038557902888
 20
-277.0894486589435
 30
0.0
 10
210.8801068787405
 20
-277.0894486589435
 30
0.0
 10
210.8801068787405
 20
-277.0894486589435
 30
0.0
 10
212.0854074035463
 20
-277.0894486589435
 30
0.0
 10
213.0715623783874
 20
-278.0756036586967
 30
0.0
 10
213.0715623783874
 20
-279.280904213951
 30
0.0
 10
213.0715623783874
 20
-279.280904213951
 30
0.0
 10
213.0715623783874
 20
-291.0571555998957
 30
0.0
 10
213.0715623783874
 20
-291.0571555998957
 30
0.0
 10
213.0715623783874
 20
-292.2624561551501
 30
0.0
 10
212.0854074035463
 20
-293.2486111549032
 30
0.0
 10
210.8801068787405
 20
-293.2486111549032
 30
0.0
  0
INSERT
  5
254
330
1F
100
AcDbEntity
  8
Strichzeichnung
100
AcDbBlockReference
  2
block 13
 10
0.0
 20
0.0
 30
0.0
  0
INSERT
  5
284
330
1F
100
AcDbEntity
  8
Strichzeichnung
100
AcDbBlockReference
  2
block 14
 10
0.0
 20
0.0
 30
0.0
  0
INSERT
  5
2B8
330
1F
100
AcDbEntity
  8
Strichzeichnung
100
AcDbBlockReference
  2
block 15
 10
0.0
 20
0.0
 30
0.0
  0
INSERT
  5
2D2
330
1F
100
AcDbEntity
  8
Strichzeichnung
100
AcDbBlockReference
  2
block 16
 10
0.0
 20
0.0
 30
0.0
  0
MTEXT
  5
2EC
330
1F
100
AcDbEntity
  8
Modell
 62
   250
420
  2039073
100
AcDbMText
 10
-5.132041286707736
 20
-0.3425922558595186
 30
0.0
 40
5.49486666529295
 41
0.0
 46
0.0
 71
     7
 72
     1
  1
\fHelvetica Neue|b1|i0|c0|p34;\W1.01462;DS-17
 73
     1
 44
1.0
  0
ENDSEC
  0
SECTION
  2
OBJECTS
  0
DICTIONARY
  5
C
330
0
100
AcDbDictionary
281
     1
  3
ACAD_GROUP
350
D
  3
ACAD_LAYOUT
350
1A
  3
ACAD_MATERIAL
350
3B
  3
ACAD_MLEADERSTYLE
350
2EE
  3
ACAD_MLINESTYLE
350
17
  3
ACAD_PLOTSETTINGS
350
19
  3
ACAD_PLOTSTYLENAME
350
E
  3
ACAD_TABLESTYLE
350
2ED
  3
ACAD_VISUALSTYLE
350
2A
  0
SUN
  5
3F
330
29
100
AcDbSun
 90
        1
290
     0
 63
     7
421
 16777215
 40
1.0
291
     1
 91
  2455826
 92
 54000000
292
     0
 70
     2
 71
   256
280
     1
  0
DICTIONARY
  5
D
102
{ACAD_REACTORS
330
C
102
}
330
C
100
AcDbDictionary
281
     1
  0
DICTIONARY
  5
1A
102
{ACAD_REACTORS
330
C
102
}
330
C
100
AcDbDictionary
281
     1
  3
Layout1
350
1E
  3
Layout2
350
26
  3
Model
350
22
  0
DICTIONARY
  5
3B
102
{ACAD_REACTORS
330
C
102
}
330
C
100
AcDbDictionary
281
     1
  3
ByBlock
350
3D
  3
ByLayer
350
3C
  3
Global
350
3E
  0
DICTIONARY
  5
2EE
102
{ACAD_REACTORS
330
C
102
}
330
C
100
AcDbDictionary
281
     1
  0
DICTIONARY
  5
17
102
{ACAD_REACTORS
330
C
102
}
330
C
100
AcDbDictionary
281
     1
  3
Standard
350
18
  0
DICTIONARY
  5
19
102
{ACAD_REACTORS
330
C
102
}
330
C
100
AcDbDictionary
281
     1
  0
ACDBDICTIONARYWDFLT
  5
E
102
{ACAD_REACTORS
330
C
102
}
330
C
100
AcDbDictionary
281
     1
  3
Normal
350
F
100
AcDbDictionaryWithDefault
340
F
  0
DICTIONARY
  5
2ED
102
{ACAD_REACTORS
330
C
102
}
330
C
100
AcDbDictionary
281
     1
  0
DICTIONARY
  5
2A
102
{ACAD_REACTORS
330
C
102
}
330
C
100
AcDbDictionary
281
     1
  3
2dWireframe
350
2F
  3
3D Hidden
350
31
  3
3dWireframe
350
30
  3
Basic
350
32
  3
Brighten
350
36
  3
ColorChange
350
3A
  3
Conceptual
350
34
  3
Dim
350
35
  3
Facepattern
350
39
  3
Flat
350
2B
  3
FlatWithEdges
350
2C
  3
Gouraud
350
2D
  3
GouraudWithEdges
350
2E
  3
Linepattern
350
38
  3
Realistic
350
33
  3
Thicken
350
37
  0
LAYOUT
  5
1E
102
{ACAD_REACTORS
330
1A
102
}
330
1A
100
AcDbPlotSettings
  1

  2
none_device
  4

  6

 40
0.0
 41
0.0
 42
0.0
 43
0.0
 44
0.0
 45
0.0
 46
0.0
 47
0.0
 48
0.0
 49
0.0
140
0.0
141
0.0
142
1.0
143
1.0
 70
   688
 72
     0
 73
     0
 74
     5
  7

 75
    16
 76
     0
 77
     2
 78
   300
147
1.0
148
0.0
149
0.0
100
AcDbLayout
  1
Layout1
 70
     1
 71
     1
 10
0.0
 20
0.0
 11
12.0
 21
9.0
 12
0.0
 22
0.0
 32
0.0
 14
1.000000000000000E+20
 24
1.000000000000000E+20
 34
1.000000000000000E+20
 15
-1.000000000000000E+20
 25
-1.000000000000000E+20
 35
-1.000000000000000E+20
146
0.0
 13
0.0
 23
0.0
 33
0.0
 16
1.0
 26
0.0
 36
0.0
 17
0.0
 27
1.0
 37
0.0
 76
     0
330
1B
  0
LAYOUT
  5
26
102
{ACAD_REACTORS
330
1A
102
}
330
1A
100
AcDbPlotSettings
  1

  2
none_device
  4

  6

 40
0.0
 41
0.0
 42
0.0
 43
0.0
 44
0.0
 45
0.0
 46
0.0
 47
0.0
 48
0.0
 49
0.0
140
0.0
141
0.0
142
1.0
143
1.0
 70
   688
 72
     0
 73
     0
 74
     5
  7

 75
    16
 76
     0
 77
     2
 78
   300
147
1.0
148
0.0
149
0.0
100
AcDbLayout
  1
Layout2
 70
     1
 71
     2
 10
0.0
 20
0.0
 11
0.0
 21
0.0
 12
0.0
 22
0.0
 32
0.0
 14
0.0
 24
0.0
 34
0.0
 15
0.0
 25
0.0
 35
0.0
146
0.0
 13
0.0
 23
0.0
 33
0.0
 16
1.0
 26
0.0
 36
0.0
 17
0.0
 27
1.0
 37
0.0
 76
     0
330
23
  0
LAYOUT
  5
22
102
{ACAD_REACTORS
330
1A
102
}
330
1A
100
AcDbPlotSettings
  1

  2
none_device
  4

  6

 40
0.0
 41
0.0
 42
0.0
 43
0.0
 44
0.0
 45
0.0
 46
0.0
 47
0.0
 48
0.0
 49
0.0
140
0.0
141
0.0
142
1.0
143
1.0
 70
  1712
 72
     0
 73
     0
 74
     0
  7

 75
     0
 76
     0
 77
     2
 78
   300
147
1.0
148
0.0
149
0.0
100
AcDbLayout
  1
Model
 70
     1
 71
     0
 10
0.0
 20
0.0
 11
12.0
 21
9.0
 12
0.0
 22
0.0
 32
0.0
 14
1.000000000000000E+20
 24
1.000000000000000E+20
 34
1.000000000000000E+20
 15
-1.000000000000000E+20
 25
-1.000000000000000E+20
 35
-1.000000000000000E+20
146
0.0
 13
0.0
 23
0.0
 33
0.0
 16
1.0
 26
0.0
 36
0.0
 17
0.0
 27
1.0
 37
0.0
 76
     0
330
1F
331
29
  0
MATERIAL
  5
3D
102
{ACAD_REACTORS
330
3B
102
}
330
3B
100
AcDbMaterial
  1
ByBlock
 72
     1
 94
      127
  0
MATERIAL
  5
3C
102
{ACAD_REACTORS
330
3B
102
}
330
3B
100
AcDbMaterial
  1
ByLayer
 72
     1
 94
      127
  0
MATERIAL
  5
3E
102
{ACAD_REACTORS
330
3B
102
}
330
3B
100
AcDbMaterial
  1
Global
 72
     1
 94
      127
  0
MLINESTYLE
  5
18
102
{ACAD_REACTORS
330
17
102
}
330
17
100
AcDbMlineStyle
  2
Standard
 70
     0
  3

 62
   256
 51
90.0
 52
90.0
 71
     2
 49
0.5
 62
   256
  6
BYLAYER
 49
-0.5
 62
   256
  6
BYLAYER
  0
ACDBPLACEHOLDER
  5
F
102
{ACAD_REACTORS
330
E
102
}
330
E
  0
VISUALSTYLE
  5
2F
102
{ACAD_REACTORS
330
2A
102
}
330
2A
100
AcDbVisualStyle
  2
2dWireframe
 70
     4
177
     2
291
     0
 71
     0
176
     1
 72
     2
176
     1
 73
     0
176
     1
 90
        0
176
     1
 40
-0.6
176
     1
 41
-30.0
176
     1
 62
     5
 63
     7
421
 16777215
176
     1
 74
     1
176
     1
 91
        4
176
     1
 64
     7
176
     1
 65
   257
176
     1
 75
     1
176
     1
175
     1
176
     1
 42
1.0
176
     1
 92
        0
176
     1
 66
   257
176
     1
 43
1.0
176
     1
 76
     1
176
     1
 77
     6
176
     1
 78
     2
176
     1
 67
     7
176
     1
 79
     5
176
     1
170
     0
176
     1
171
     0
176
     1
290
     0
176
     1
 93
        1
176
     1
 44
0.0
176
     1
173
     0
176
     1
  0
VISUALSTYLE
  5
31
102
{ACAD_REACTORS
330
2A
102
}
330
2A
100
AcDbVisualStyle
  2
3D Hidden
 70
     6
177
     2
291
     0
 71
     1
176
     1
 72
     2
176
     1
 73
     2
176
     1
 90
        0
176
     1
 40
-0.6
176
     1
 41
-30.0
176
     1
 62
     5
 63
     7
421
 16777215
176
     1
 74
     2
176
     1
 91
        2
176
     1
 64
     7
176
     1
 65
   257
176
     1
 75
     2
176
     1
175
     1
176
     1
 42
40.0
176
     1
 92
        0
176
     1
 66
   257
176
     1
 43
1.0
176
     1
 76
     1
176
     1
 77
     6
176
     1
 78
     2
176
     1
 67
     7
176
     1
 79
     3
176
     1
170
     0
176
     1
171
     0
176
     1
290
     0
176
     1
 93
        1
176
     1
 44
0.0
176
     1
173
     0
176
     1
  0
VISUALSTYLE
  5
30
102
{ACAD_REACTORS
330
2A
102
}
330
2A
100
AcDbVisualStyle
  2
3dWireframe
 70
     5
177
     2
291
     0
 71
     0
176
     1
 72
     2
176
     1
 73
     0
176
     1
 90
        0
176
     1
 40
-0.6
176
     1
 41
-30.0
176
     1
 62
     5
 63
     7
421
 16777215
176
     1
 74
     1
176
     1
 91
        4
176
     1
 64
     7
176
     1
 65
   257
176
     1
 75
     1
176
     1
175
     1
176
     1
 42
1.0
176
     1
 92
        0
176
     1
 66
   257
176
     1
 43
1.0
176
     1
 76
     1
176
     1
 77
     6
176
     1
 78
     2
176
     1
 67
     7
176
     1
 79
     5
176
     1
170
     0
176
     1
171
     0
176
     1
290
     0
176
     1
 93
        1
176
     1
 44
0.0
176
     1
173
     0
176
     1
  0
VISUALSTYLE
  5
32
102
{ACAD_REACTORS
330
2A
102
}
330
2A
100
AcDbVisualStyle
  2
Basic
 70
     7
177
     2
291
     1
 71
     1
176
     1
 72
     0
176
     1
 73
     1
176
     1
 90
        0
176
     1
 40
-0.6
176
     1
 41
-30.0
176
     1
 62
     5
 63
     7
421
 16777215
176
     1
 74
     0
176
     1
 91
        4
176
     1
 64
     7
176
     1
 65
   257
176
     1
 75
     1
176
     1
175
     1
176
     1
 42
1.0
176
     1
 92
        8
176
     1
 66
     7
176
     1
 43
1.0
176
     1
 76
     1
176
     1
 77
     6
176
     1
 78
     2
176
     1
 67
     7
176
     1
 79
     5
176
     1
170
     0
176
     1
171
     0
176
     1
290
     0
176
     1
 93
        1
176
     1
 44
0.0
176
     1
173
     0
176
     1
  0
VISUALSTYLE
  5
36
102
{ACAD_REACTORS
330
2A
102
}
330
2A
100
AcDbVisualStyle
  2
Brighten
 70
    12
177
     2
291
     1
 71
     2
176
     1
 72
     2
176
     1
 73
     0
176
     1
 90
        0
176
     1
 40
-0.6
176
     1
 41
-30.0
176
     1
 62
     5
 63
     7
421
 16777215
176
     1
 74
     1
176
     1
 91
        4
176
     1
 64
     7
176
     1
 65
   257
176
     1
 75
     1
176
     1
175
     1
176
     1
 42
1.0
176
     1
 92
        8
176
     1
 66
     7
176
     1
 43
1.0
176
     1
 76
     1
176
     1
 77
     6
176
     1
 78
     2
176
     1
 67
     7
176
     1
 79
     5
176
     1
170
     0
176
     1
171
     0
176
     1
290
     0
176
     1
 93
        1
176
     1
 44
50.0
176
     1
173
     0
176
     1
  0
VISUALSTYLE
  5
3A
102
{ACAD_REACTORS
330
2A
102
}
330
2A
100
AcDbVisualStyle
  2
ColorChange
 70
    16
177
     2
291
     1
 71
     2
176
     1
 72
     2
176
     1
 73
     3
176
     1
 90
        0
176
     1
 40
-0.6
176
     1
 41
-30.0
176
     1
 62
     5
 63
     8
421
  8421504
176
     1
 74
     1
176
     1
 91
        4
176
     1
 64
     7
176
     1
 65
   257
176
     1
 75
     1
176
     1
175
     1
176
     1
 42
1.0
176
     1
 92
        8
176
     1
 66
     8
424
  8421504
176
     1
 43
1.0
176
     1
 76
     1
176
     1
 77
     6
176
     1
 78
     2
176
     1
 67
     7
176
     1
 79
     5
176
     1
170
     0
176
     1
171
     0
176
     1
290
     0
176
     1
 93
        1
176
     1
 44
0.0
176
     1
173
     0
176
     1
  0
VISUALSTYLE
  5
34
102
{ACAD_REACTORS
330
2A
102
}
330
2A
100
AcDbVisualStyle
  2
Conceptual
 70
     9
177
     2
291
     0
 71
     3
176
     1
 72
     2
176
     1
 73
     0
176
     1
 90
        0
176
     1
 40
-0.6
176
     1
 41
-30.0
176
     1
 62
     5
 63
     7
421
 16777215
176
     1
 74
     2
176
     1
 91
        2
176
     1
 64
     7
176
     1
 65
   257
176
     1
 75
     1
176
     1
175
     1
176
     1
 42
40.0
176
     1
 92
        8
176
     1
 66
     7
176
     1
 43
1.0
176
     1
 76
     1
176
     1
 77
     6
176
     1
 78
     2
176
     1
 67
     7
176
     1
 79
     3
176
     1
170
     0
176
     1
171
     0
176
     1
290
     0
176
     1
 93
        1
176
     1
 44
0.0
176
     1
173
     0
176
     1
  0
VISUALSTYLE
  5
35
102
{ACAD_REACTORS
330
2A
102
}
330
2A
100
AcDbVisualStyle
  2
Dim
 70
    11
177
     2
291
     1
 71
     2
176
     1
 72
     2
176
     1
 73
     0
176
     1
 90
        0
176
     1
 40
-0.6
176
     1
 41
-30.0
176
     1
 62
     5
 63
     7
421
 16777215
176
     1
 74
     1
176
     1
 91
        4
176
     1
 64
     7
176
     1
 65
   257
176
     1
 75
     1
176
     1
175
     1
176
     1
 42
1.0
176
     1
 92
        8
176
     1
 66
     7
176
     1
 43
1.0
176
     1
 76
     1
176
     1
 77
     6
176
     1
 78
     2
176
     1
 67
     7
176
     1
 79
     5
176
     1
170
     0
176
     1
171
     0
176
     1
290
     0
176
     1
 93
        1
176
     1
 44
-50.0
176
     1
173
     0
176
     1
  0
VISUALSTYLE
  5
39
102
{ACAD_REACTORS
330
2A
102
}
330
2A
100
AcDbVisualStyle
  2
Facepattern
 70
    15
177
     2
291
     1
 71
     2
176
     1
 72
     2
176
     1
 73
     0
176
     1
 90
        0
176
     1
 40
-0.6
176
     1
 41
-30.0
176
     1
 62
     5
 63
     7
421
 16777215
176
     1
 74
     1
176
     1
 91
        4
176
     1
 64
     7
176
     1
 65
   257
176
     1
 75
     1
176
     1
175
     1
176
     1
 42
1.0
176
     1
 92
        8
176
     1
 66
     7
176
     1
 43
1.0
176
     1
 76
     1
176
     1
 77
     6
176
     1
 78
     2
176
     1
 67
     7
176
     1
 79
     5
176
     1
170
     0
176
     1
171
     0
176
     1
290
     0
176
     1
 93
        1
176
     1
 44
0.0
176
     1
173
     0
176
     1
  0
VISUALSTYLE
  5
2B
102
{ACAD_REACTORS
330
2A
102
}
330
2A
100
AcDbVisualStyle
  2
Flat
 70
     0
177
     2
291
     1
 71
     2
176
     1
 72
     1
176
     1
 73
     1
176
     1
 90
        2
176
     1
 40
-0.6
176
     1
 41
30.0
176
     1
 62
     5
 63
     7
421
 16777215
176
     1
 74
     0
176
     1
 91
        4
176
     1
 64
     7
176
     1
 65
   257
176
     1
 75
     1
176
     1
175
     1
176
     1
 42
1.0
176
     1
 92
        8
176
     1
 66
     7
176
     1
 43
1.0
176
     1
 76
     1
176
     1
 77
     6
176
     1
 78
     2
176
     1
 67
     7
176
     1
 79
     5
176
     1
170
     0
176
     1
171
     0
176
     1
290
     0
176
     1
 93
       13
176
     1
 44
0.0
176
     1
173
     0
176
     1
  0
VISUALSTYLE
  5
2C
102
{ACAD_REACTORS
330
2A
102
}
330
2A
100
AcDbVisualStyle
  2
FlatWithEdges
 70
     1
177
     2
291
     1
 71
     2
176
     1
 72
     1
176
     1
 73
     1
176
     1
 90
        2
176
     1
 40
-0.6
176
     1
 41
30.0
176
     1
 62
     5
 63
     7
421
 16777215
176
     1
 74
     1
176
     1
 91
        4
176
     1
 64
     7
176
     1
 65
   257
176
     1
 75
     1
176
     1
175
     1
176
     1
 42
1.0
176
     1
 92
        0
176
     1
 66
   257
176
     1
 43
1.0
176
     1
 76
     1
176
     1
 77
     6
176
     1
 78
     2
176
     1
 67
     7
176
     1
 79
     5
176
     1
170
     0
176
     1
171
     0
176
     1
290
     0
176
     1
 93
       13
176
     1
 44
0.0
176
     1
173
     0
176
     1
  0
VISUALSTYLE
  5
2D
102
{ACAD_REACTORS
330
2A
102
}
330
2A
100
AcDbVisualStyle
  2
Gouraud
 70
     2
177
     2
291
     1
 71
     2
176
     1
 72
     2
176
     1
 73
     1
176
     1
 90
        2
176
     1
 40
-0.6
176
     1
 41
30.0
176
     1
 62
     5
 63
     7
421
 16777215
176
     1
 74
     0
176
     1
 91
        4
176
     1
 64
     7
176
     1
 65
   257
176
     1
 75
     1
176
     1
175
     1
176
     1
 42
1.0
176
     1
 92
        0
176
     1
 66
     7
176
     1
 43
1.0
176
     1
 76
     1
176
     1
 77
     6
176
     1
 78
     2
176
     1
 67
     7
176
     1
 79
     5
176
     1
170
     0
176
     1
171
     0
176
     1
290
     0
176
     1
 93
       13
176
     1
 44
0.0
176
     1
173
     0
176
     1
  0
VISUALSTYLE
  5
2E
102
{ACAD_REACTORS
330
2A
102
}
330
2A
100
AcDbVisualStyle
  2
GouraudWithEdges
 70
     3
177
     2
291
     1
 71
     2
176
     1
 72
     2
176
     1
 73
     1
176
     1
 90
        2
176
     1
 40
-0.6
176
     1
 41
30.0
176
     1
 62
     5
 63
     7
421
 16777215
176
     1
 74
     1
176
     1
 91
        4
176
     1
 64
     7
176
     1
 65
   257
176
     1
 75
     1
176
     1
175
     1
176
     1
 42
1.0
176
     1
 92
        0
176
     1
 66
   257
176
     1
 43
1.0
176
     1
 76
     1
176
     1
 77
     6
176
     1
 78
     2
176
     1
 67
     7
176
     1
 79
     5
176
     1
170
     0
176
     1
171
     0
176
     1
290
     0
176
     1
 93
       13
176
     1
 44
0.0
176
     1
173
     0
176
     1
  0
VISUALSTYLE
  5
38
102
{ACAD_REACTORS
330
2A
102
}
330
2A
100
AcDbVisualStyle
  2
Linepattern
 70
    14
177
     2
291
     1
 71
     2
176
     1
 72
     2
176
     1
 73
     0
176
     1
 90
        0
176
     1
 40
-0.6
176
     1
 41
-30.0
176
     1
 62
     5
 63
     7
421
 16777215
176
     1
 74
     1
176
     1
 91
        4
176
     1
 64
     7
176
     1
 65
   257
176
     1
 75
     7
176
     1
175
     7
176
     1
 42
1.0
176
     1
 92
        8
176
     1
 66
     7
176
     1
 43
1.0
176
     1
 76
     1
176
     1
 77
     6
176
     1
 78
     2
176
     1
 67
     7
176
     1
 79
     5
176
     1
170
     0
176
     1
171
     0
176
     1
290
     0
176
     1
 93
        1
176
     1
 44
0.0
176
     1
173
     0
176
     1
  0
VISUALSTYLE
  5
33
102
{ACAD_REACTORS
330
2A
102
}
330
2A
100
AcDbVisualStyle
  2
Realistic
 70
     8
177
     2
291
     0
 71
     2
176
     1
 72
     2
176
     1
 73
     0
176
     1
 90
        0
176
     1
 40
-0.6
176
     1
 41
-30.0
176
     1
 62
     5
 63
     7
421
 16777215
176
     1
 74
     1
176
     1
 91
        0
176
     1
 64
     7
176
     1
 65
   257
176
     1
 75
     1
176
     1
175
     1
176
     1
 42
1.0
176
     1
 92
        8
176
     1
 66
     8
424
  7895160
176
     1
 43
1.0
176
     1
 76
     1
176
     1
 77
     6
176
     1
 78
     2
176
     1
 67
     7
176
     1
 79
     5
176
     1
170
     0
176
     1
171
     0
176
     1
290
     0
176
     1
 93
       13
176
     1
 44
0.0
176
     1
173
     0
176
     1
  0
VISUALSTYLE
  5
37
102
{ACAD_REACTORS
330
2A
102
}
330
2A
100
AcDbVisualStyle
  2
Thicken
 70
    13
177
     2
291
     1
 71
     2
176
     1
 72
     2
176
     1
 73
     0
176
     1
 90
        0
176
     1
 40
-0.6
176
     1
 41
-30.0
176
     1
 62
     5
 63
     7
421
 16777215
176
     1
 74
     1
176
     1
 91
        4
176
     1
 64
     7
176
     1
 65
   257
176
     1
 75
     1
176
     1
175
     1
176
     1
 42
1.0
176
     1
 92
       12
176
     1
 66
     7
176
     1
 43
1.0
176
     1
 76
     1
176
     1
 77
     6
176
     1
 78
     2
176
     1
 67
     7
176
     1
 79
     5
176
     1
170
     0
176
     1
171
     0
176
     1
290
     0
176
     1
 93
        1
176
     1
 44
0.0
176
     1
173
     0
176
     1
  0
ENDSEC
  0
EOF
